Dave Matthews Band - What Would You Say Chords & Tabs

 

What Would You Say Chords & Tabs

Dave Matthews Band Chords & Tabs

Version: 8 Type: Tab 0 ratings
1 star 2 stars 3 stars 4 stars 5 stars
comments

What Would You Say Tab

#----------------------------------PLEASE NOTE-------------#
This file is the author's own work and represents their interpretation of the song. You may only use this file for private study, scholarship, or research.
#----------------------------------------------------------#

Dave Matthews Band - what legends!

"What Would You Say"

Album: Under The Table and Dreaming

by Steve Yorke

This is how I think the intro goes - and both guitars! 
You'll probably be more interested in guitar 1.

Enjoy!
[ Tab from: http://www.guitartabs.cc/tabs/d/dave_matthews_band/what_would_you_say_tab_ver_8.html ]
Intro
              quick 
             ^    ^
    Guitar 1        
E  :-----------------0----0--|--------------------|
B  :-------------4/5-5----5--|--x2--2b3r2---------|
G  :--------4/2--4--------4--|--x2---------4--2---|
D  :-----5-------------------|-------------------2|
A  :-------------------0-----|--------------------|
E  :-3/5---------------------|3-------------------|

    Guitar 2                                 
E  :-------------------------|--------------------|
B  :-------------4/5---------|--x2--2b3r2---------|
G  :--------4/2-------------0|--x2---------4--2---|
D  :-----5------------------0|-------------------2|
A  :-------------------0--0--|--------------------|
E  :-3/5---------------------|3-------------------|
Comments