Dave Matthews Band - What Would You Say Chords & Tabs

 

What Would You Say Chords & Tabs

Dave Matthews Band Chords & Tabs

Version: 7 Type: Tab 0 ratings
1 star 2 stars 3 stars 4 stars 5 stars
comments

What Would You Say Tab

   
-=-=-=-=-=-=-=-=-=-=-=-=-=-=-=-=-=-=-=
Dave Matthews Band
What Would You Say
Under The Table And Dreaming (1994)
Tabbed By Leandro Koren
leandro_koren@yahoo.com.ar
-=-=-=-=-=-=-=-=-=-=-=-=-=-=-=-=-=-=-=

Intro & Verse & Chorus:

E|-|----------------------------------------|-|
B|-|----------0---4/5-----------------------|-|
G|-|----------------------4---6b--4---------|-|
D|-|-------7-----------5---------------7-5--|-|
A|-|----------------------------------------|-|
e|-|--3/5-----------------------------------|-|

or a more complete intro:

E|-|---------X------------------------------|-|
B|-|---------X0---4/5-----------------------|-|
G|-|---------X-----------4---6b--4-----7-5--|-|
D|-|--5/7--7-----------5--------------------|-|
A|-|--X-X-----------------------------------|-|
e|-|--3/5-----------------------------------|-|

Verse I:

Up and down the puppies' hair 
fleas and ticks jump everywhere
'cause of original sin
down the hill fell jack and jill
and you came tumbling after
'cause of original sin

Pre-Chorus:

F       G            
rip away the tears
 A                 G
drink a hope to happy years
  F          Esus4
and you may find
   F            G
a lifetime's passed you by

E|-|-------------------|-|
B|-|---------0-4h5-----|-|
G|-|-------------------|-|
D|-|------7---------7--|-|
A|-|-------------------|-|
e|-|--3/5--------------|-|

Chorus:

What would you say,
don't drop the big one,
If you a monkey on a string,
don't cut my lifeline,
If you a doggie on a chain,
don't bite the mailman,
what would you say.

Verse II:

I was there when the bear,
ate his head, thought it was a candy,
everyone goes in the end.
Knock, knock on the door,
who's it for, there's nobody in here,
look in the mirror my friend.

Pre-Chorus:

I don't understand at best,
and cannot speak for all the rest,
the morning rise
a lifetime's passed me by.

Chorus:

What would you say,
If you a doggie on a chain,
If you a monkey on a string,
what would you say.
Don't drop the big one
If you a monkey on a string
don't cut my lifeline
If you a doggie on a chain
don't bite the mailman
what would you say

Break 2:22:
[ Tab from: http://www.guitartabs.cc/tabs/d/dave_matthews_band/what_would_you_say_tab_ver_7.html ]
      E5  G/E              A  C#7 E7
E|-|--------------------|----------------------|-|
B|-|------8-----8--8-8--|--------0-------------|-|
G|-|--9---7-----7--7-7--|--2--3--2-------------|-|
D|-|--9---5-----5--5-5--|--2--2--0----------2--|-|
A|-|--7---7--0--7--7-7--|--0--3--2-------------|-|
e|-|--------------------|-----------0-3h0-0----|-|


E|-|--------------------|----------------------|-|
B|-|------8-----8--8-8--|--------0-------------|-|
G|-|------7-----7--7-7--|--2--3--2----7/9-9-9--|-|
D|-|------5-----5--5-5--|--2--2--0-------------|-|
A|-|------7--0--7--7-7--|--0--3--2----5/7-7-7--|-|
e|-|--0-----------------|-----------0----------|-|

Sax Solo:

E|-|--------------------|----------------------|-|
B|-|------8-----8--8-8--|--------0-------------|-|
G|-|--9---7-----6--6-6--|--2--3--2-------------|-|
D|-|------5-----5--5-5--|--2--2--0----------2--|-|
A|-|--7---7--0--7--7-7--|--0--3--2-------------|-|
e|-|--------------------|-----------0-3h0-0----|-|

E|-|--------------------|------------12-12-12-12--|-|
B|-|------8-----8--8-8--|--------0---12-12-12-12--|-|
G|-|------7-----6--6-6--|--2--3--2---12-12-12-12--|-|
D|-|------5-----5--5-5--|--2--2--0---11-11-11-11--|-|
A|-|------7--0--7--7-7--|--0--3--2---12-12-12-12--|-|
e|-|--0-----------------|-------------------------|-|

E|-|--11/12-12-12---11/12-12-12---12--|-|
B|-|--11/12-12-12---11/12-12-12---12--|-|
G|-|--11/12-12-12---11/12-12-12---12--|-|
D|-|--10/11-11-11---10/11-11-11---11--|-|
A|-|--11/12-12-12---11/12-12-12---12--|-|
e|-|----------------------------------|-|

The Harmonica solo is pretty the same.

Pre-Chorus:

I was there when the bear
ate his head, thought it was a candy
everyone goes in the end
knock knock on the door
who's it for, there's nobody in here
look in the mirror my friend

Pre-Chorus:

I don't understand at best
and cannot speak for all the rest
the morning rise a lifetime's passed me by

Chorus:

What would you say,
If you a doggie on a chain,
If you a monkey on a string,
what would you say.
Don't drop the big one
If you a monkey on a string
don't cut my lifeline
If you a doggie on a chain
don't bite the mailman
what would you say

Every dog has its day every day has its way
of being forgotten
mom it's my birthday

     E/G
E|-|-----|-|
B|-|-----|-|
G|-|-----|-|
D|-|--2--|-|
A|-|--X--|-|
e|-|--3--|-|

What would you say?
Comments