Dave Matthews Band - What Would You Say Chords & Tabs

 

What Would You Say Chords & Tabs

Dave Matthews Band Chords & Tabs

Version: 5 Type: Tab 0 ratings
1 star 2 stars 3 stars 4 stars 5 stars
comments

What Would You Say Tab

   
Dave Matthews Band
What Would You Say
------------------
 
 
Intro/Verse/Chorus
------------------
 
/ = slide up
 
 
    A                G
              /            1/2 bend
e------------------------------------------|
B------------4-5---------------------------|
G------------------------4--6b--4----------|
D------5--7-------7---5------------7--5----|
A---0--------------------------------------|
E-----------------5---3--------------------|
 
 
Pre-Chorus
----------
 
  F  G  A  G  F  E  F  G  A                  G
                                            /
e--1---3-------3---1---0---1---3----------------------3-----|
B--1---0---2---0---1---0---1---0------------4-5---2---0-----|
G--2---0---2---0---2---1---2---0------------------2---0-----|
D--3---0---2---0---3---2---3---0------5--7--------2---0-----|
A--1---2---0---2---1---2---1---2---0--------------0---2-----|
E--1---3-------3---1---0---1---3----------------------3-----|
 
 
 
Super-Jam
---------
---------
 
 
First Part
--------
 
p = pull off
 
I split the First Part up into four smaller 'parts', our times the section is played before it has been one 'time' (this is not music jargon at its best, I know).
 
Parts 1 & 3:
What Dave plays here is not very defined.  Basically, the only difference between all the parts is the part after the A/Bb/B.  Here's a basic example of what Dave might play:
 
    A7        A  Bb  B
 
e-------------------------------------------|
B-------------------------------------------|
G-------7--6---2---3---4--------------------|
D-------5--5---2---3---4--------------------|
A---0----------0---1---2--------------------|
E--------------------------0---3p0---3p0----|
 
Part 2:
 
    A7        A  Bb  B
 
e-----------------------------------------------|
B-----------------------------------------------|
G-------7--6---2---3---4----7-7--9-9--11--9-----|
D-------5--5---2---3---4------------------------|
A---0----------0---1---2----5-5--7-7--9---7-----|
E-----------------------------------------------|
 
Part 4:
 
/ = slide up
 
    A7        A  Bb  B
                            /
e-----------------------------------------------|
B-----------------------------------------------|
G-------7--6---2---3---4----7-9--9-9------------|
D-------5--5---2---3---4------------------------|
A---0----------0---1---2----5-7--7-7------------|
E-----------------------------------------------|
 
 
Variations on octaves: There are a few variations Dave plays.  The octaves that fit in this section are: A B C# D E F# G
 
 
 
Second Part
-----------
 
Variation 1:
 
    A9
 
e---12---12------------------------------|
B---12---12------------------------------|
G---12---12---6--7--4--6-----------------|
D---11---11---------------7--9--5--7-----|
A---12---12---4--5--2--4-----------------|
E-------------------------5--7--3--5-----|
 
Variation 2:
 
    A9
 
e---12---12------------------------------|
B---12---12---15-15-15-15-15-15-15-15----|
G---12---12---12-12-12-12-12-12-12-12----|
D---11---11------------------------------|
A---12---12------------------------------|
E----------------------------------------|
 
 

[ Tab from: http://www.guitartabs.cc/tabs/d/dave_matthews_band/what_would_you_say_tab_ver_5.html ]
Comments