Dave Matthews Band - What Would You Say Chords & Tabs

 

What Would You Say Chords & Tabs

Dave Matthews Band Chords & Tabs

Version: 4 Type: Tab 0 ratings
1 star 2 stars 3 stars 4 stars 5 stars
comments

What Would You Say Tab

   
name: Tony Castricone

artist: Dave Matthews

SongTitle: What Would You Say

Tabs: (rhy. fig. 1)

 |--------------------------------------|
 |------------------3/5--5-----5--------|
 |-------0--4\2----------4-----4--0-----|
 |--------------------------------0-----|
 |--------------------------------x--x--|
 |--3/5----------x----------5-----x--x--|

 |--------------------------------------|
 |-----2--2--2--2/3-0-------------------|
 |-----2--2--2---------2----------------|
 |-----2--2--2------------2-------------|
 |--------------------------------------|
 |--3-----------------------------------|

(w/ rhy. fig. 1)
 Up and down the puppies' hair,
 Fleas and ticks jump everywhere.
 ('Cause of original sin)
 Down the hill fell Jack and Jill 
 and you came tumbling after
 ('Cause of original sin)

(pre-chorus)
 F            G
 Rip away the tears,
 Am              G
 Drink a hope to happy years.
     F       Esus4
 And you may find, 
       F      G
 A lifetime's passed you by. 

(w/ rhy. fig. 1)
[ Tab from: http://www.guitartabs.cc/tabs/d/dave_matthews_band/what_would_you_say_tab_ver_4.html ]
 What would you say?
 (Don't drop the big one)
 If you were monkey on a string
 (Don't cut my lifetime)
 If you were doggy on a chain
 (Don't bite the mailman)
 What would you say?

2. I was there when the bear ate his head,
   Thought it was a candy.
   (Everyone goes in the end)
   Knock, knock on the door, who's it for?
   There's nobody in here.
   (Look in the mirror, my friend)
   I don't understand at best.
   Cannot speak for all the rest.
   The morning rise, a lifetime's passed me by.
   What would you say?

   Every dog has its day, everyday has its way
   Of being forgotten.
   Mom's it's my birthday. Would you say, hey?
   (Now, what would you say)
   What would you say?

Jam (this part is fast and hard to play but it sounds awesome)

 |----------------------------------------------------------------|
 |--------8-----8--8--8--x--0--------------0--x--x----------------|
 |--9--x--7-----6--6--6--x--0--2--x--3--x--2--x--x----------------|
 |-----x--5-----5--5--5--x--0--2--x--2--x--0--x--x-------------2--|
 |--7--x--7--0--7--7--7--x-----0--x--3--x--2--x--x----------------|
 |--------------------------------------------------0--3p0--0-----|

CHORDS: EADGBE

F- 133211
G- 355433
Am- 577555
Esus4- 011100

Comments