Dave Matthews Band - What Would You Say Chords & Tabs

 

What Would You Say Chords & Tabs

Dave Matthews Band Chords & Tabs

Version: 2 Type: Tab 2 ratings
1 star 2 stars 3 stars 4 stars 5 stars
comments

What Would You Say Tab

Intro/Verse

E:--------------------------------------------------
B:-----------------3/5-----5----------2^3^2--0------
G:-----------4\2-------------------------------2----
D:-------5-------------------------2-------------2--
A:--------------------------------------------------
E:-3/5-------------------5---5--3-------------------
  


Chorus
[ Tab from: http://www.guitartabs.cc/tabs/d/dave_matthews_band/what_would_you_say_tab_ver_2.html ]
E:--------------------------------------
B:--------------------------------------
G:--------------------------------------
D:-3-----5-----7-----5-----3---2---3---5
A:-3-----5-----7-----5-----3---2---3---5
E:-1-----3-----5-----3-----1---0---1---3


Every dog has his day

E:---------
B:---------
G:---------
D:-5----2-- 
A:-x----x--
E:-5----3--


Jam

E:---------------------------------
B:-8---8----2----------------------
G:-7---6----2--3--2----------------
D:-5---x----2--2--1----------------
A:-7---7-------3--2-----------5h7--
E:-----5--------------0-3p0--------
Comments