Dave Matthews Band - Warehouse Chords & Tabs

 

Warehouse Chords & Tabs

Dave Matthews Band Chords & Tabs

Version: 4 Type: Tab 0 ratings
1 star 2 stars 3 stars 4 stars 5 stars
comments

Warehouse Tab

   
intro
----------------------------x-x-x-x--x--x--x----------------
----------------------------x-x-x-x--x--x--x----------------
------------x-----------x---7-7-7-7--7--7--7------------x---
-------x-x-11------x-x-12-------9-9--9--9----------x-x-11---  1x
---x-x-9-9--9------9-9--9-----------10-10--9---x-x-9-9--9---
---7-7-7-7--7------7-7--7----------------------7-7-7-7--7---

-----------------------------x-x-x-x-x-x-x------------------
-----------------------------x-x-x-x-x-x-x------------------
-----------x-x-----------x---5-5-5-5-5-5-5------------x-x---
-------x-x-9-9------x-x-10-------7-7-7-7----------x-x-9-9---  1x
---x-x-7-7-7-7------7-7--7-----------8-8-7----x-x-7-7-7-7---
---5-5-5-5-5-5------5-5--5--------------------5-5-5-5-5-5---
[ Tab from: http://www.guitartabs.cc/tabs/d/dave_matthews_band/warehouse_tab_ver_4.html ]
----------------------------x-x-x-x--x--x--x----------------
----------------------------x-x-x-x--x--x--x----------------
------------x--x---------x--7-7-7-7--7--7--7------------x---
-------x-x-11-11----x-x-12------9-9--9--9----------x-x-11---  
---x-x-9-9--9--9----9-9--9----------10-10--9---x-x-9-9--9---
---7-7-7-7--7--7----7-7--7---------------------7-7-7-7--7---    
                                                              repeat 5x
-----------------------------x-x-x-x-x-x-x------------------
-----------------------------x-x-x-x-x-x-x------------------
-----------x-x-----------x---5-5-5-5-5-5-5------------x-x---
-------x-x-9-9------x-x-10-------7-7-7-7----------x-x-9-9---
---x-x-7-7-7-7------7-7--7-----------8-8-7----x-x-7-7-7-7---
---5-5-5-5-5-5------5-5--5--------------------5-5-5-5-5-5---

This is how its played. Perfect.
a-ron
Comments