Dave Matthews Band - Warehouse Chords & Tabs

 

Warehouse Chords & Tabs

Dave Matthews Band Chords & Tabs

Version: 2 Type: Tab 0 ratings
1 star 2 stars 3 stars 4 stars 5 stars
comments

Warehouse Tab

#----------------------------------PLEASE 
NOTE--------------------------------# #
This file is the author's own work and represents their interpretation 
of the# #song. 
You may only use this file for private study, scholarship, or 
research.# #
-----------------------------------------------------------------------------# 

song: Warehouse (Listeners Supported)
 artist: Dave Matthews Band
 tab: By: Jimmy Kulina 
 If you have any questions on DMB tabs e-mail me at jimk212@aol.com


Intro verse
E---------------------
B-x--x--x--x-x-x-------x--x--x--x-x-x-x-x-
G-x--x--7--x-x-x-------x--x--5--x-x-x-x-x-
D-x-11--x--x-x-x-------x--9--x--x-x-x-x-x-
A-x--x--x-10-9-7-------x--x--x--8-7-5-x-
E-7--x--x--x-x-x-------5--x--x--x-x-x-x-x


[ Tab from: http://www.guitartabs.cc/tabs/d/dave_matthews_band/warehouse_tab_ver_2.html ]
Verse
E----------------------------------------
B-x--x---x--x---x-x---x--x--x--x--x--x-x
G-x--x---7--x---x-x---x--x--7--x--x--x-x
D-x--11--x--x---x-x---x--11-x--x--x--x-x
A-x--x---x--10--9-7---x--x--x--10-9--7-x-
E-7--x---x--x---x-x---7--x--x--x--x--x-x



"Leave all the lights on..."
E-------------------------------------------
B-------------------------------------------
G-------------------------------------------
D--7-7----7-7-7-7-x----7-7----7-7-7-7-7-x---
A--x-x--4/5-5-5-5-x----x-x----5-5-5-5-5-x---
E--5-5-----------------3-3------------------



"And here I sit..."       "Fade away..."
E-----------------------  -------------
B-----------------------  -------------
G-----------------------   -------------
D-------9---11----9-----  --5---7------
A--9----7----9----7-----  --5---7------
E--7--------------------  --3---5------



Ending                                Upstrum
E-------------------------------0-----0--- -
B---2-------------------------0-------0--
G---2-----------------------1---------1--
D---2---------------------4-----------4--
A-----------------------2-------------2--
E--------3---2---1---0----------------0--
Comments