Dave Matthews Band - Warehouse Chords & Tabs

 

Warehouse Chords & Tabs

Dave Matthews Band Chords & Tabs

Version: 2 Type: Bass Tab 0 ratings
1 star 2 stars 3 stars 4 stars 5 stars
comments

Warehouse Bass Tab

   
Warehouse

As played by Dave Mattews Band on 'Under the Table and Dreaming'

Transcribed at 10:06pm, September 29, 1997, by Cody Rahn.

(Elaboration is welcome)

\=slide up
/=slide down
H=hammer
P=pulloff

A really neat song. I like the quirky way the bass follows the 
guitar and yet still holds its character. It's fun to play, and
(lucky me) only requires a 4-string. It's pretty much all in time
and not too difficult, so without further delay...

The bass enters the song during the intro when the horn, cymbals, 
and violin first play. During the intro, I hit the 7 and then rapidly
but lightly tap with my 1st and 2nd fingers near the bridge to sustain
the note. I've seen Stefan do this, so I'll be a copycat and do it, too :)


*****
Intro
*****

     1   &   2   &   3   &   4   &       1   &   2   &   3   &   4   &
G|-----------------------------------|-----------------------------------|    
D|-----------------------------------|-----------------------------------|    
A|-----------------------------------|-----------------------------------|    
E|---7-------------------------------|-----------------------------------|
      \__________________________________________________________________

     1   &   2   &   3   &   4   &       1   &   2   &   3   &   4   &
G|-----------------------------------|-----------------------------------|    
D|-----------------------------------|-----------------------------------|    
A|-----------------------------------|-----------------------------------|    
E|---7-------------------------------|-----------------------------------|
  __/

This is repeated three times. The violin plays for a moment, and the drums
and bass come in as follows.

     1   &   2   &   3   &   4   &       1   &   2   &   3   &   4   &
G|-----------------------------------|-----------------------------------|    
D|-----------------------5-------4---|-----------------------------------|    
A|-----------------------------------|-------7-------5-------4-----------|    
E|-----------------------------------|-------------------------------8---|

*****
Verse (play twice)
*****


note: the notes such as the 9's in this section are to be trilled quickly.
The way they are done is evident in the song if you just listen to it. 


     1   &   2   &   3   &   4   &       1   &   2   &   3   &   4   &
G|---------------7-------7-----------|---------------7-------7-----------|    
D|---------------------------7-------|-------------------------------7---|    
A|---------7/9-----------------------|---------9-9---------------r-------|    
E|---7-------------------------------|---7-------------------------------|


     1   &   2   &   3   &   4   &       1   &   2   &   3   &   4   &
G|---------------7-------7-----------|-----------------------------------|    
D|---------------------------7-------|-----------------------------------|    
A|---------9-9-----------------------|-----------------------------------|    
E|---7-------------------------------|---7---\5--5---\3--3------/13\-----|


Chorus:

The chorus section is just played and adlibbed upon as follows:


     1   &   2   &   3   &   4   &       1   &   2   &   3   &   4   &
G|-----------------------------------|-----------------------------------|    
D|-----------------------------------|-----------------------------------|    
A|-----------5---r-5h7---5-5---7-5---|-----------------------------------|    
E|---5---5-------------------------7-|---3-------------3h5-3h5-------3---|

 "Keep all the lights on..."

     1   &   2   &   3   &   4   &       1   &   2   &   3   &   4   &
G|-----------------------------------|-----------------------------------|    
D|-----------------x-----------------|-----------------x-----------------|    
A|-----------------x-----------------|-----------------x-----------------|    
E|-----------------------------------|-----------------------------------|

 "The black cat changin colors..."

     1   &   2   &   3   &   4   &       1   &   2   &   3   &   4   &
G|-----------------------------------|-----------------------------------|    
D|-----------------x-----------------|-----------------x-----------------|    
A|-----------------x-----------------|-----------------x-----------------|    
E|-----------------------------------|-----------------------------------|

 "And we can walk under ladders..."

G|-----------------------------------|
D|-----------------------------------|
A|-----------5---r-5h7---5-5---7-5---|
E|---5---5-------------------------7-|

 "And swim as the tide.."

         1       &       2       &       3       &       4       &       
G|-----------------------------------------------------------------------|    
D|-----------------------------------------------------------------------|    
A|-----------------------------------------------------------------------|    
E|-------24--------------19h21\19--------17h19\17--------15h17\15--------|


         1       &       2       &       3       &       4       &       
G|-----------------------------------------------------------------------|    
D|-----------------------------------------------------------------------|    
A|-----------------------------------------------------------------------|    
E|-------14h16\14--------12h14\12--------10h12\10--------11\-------------|

This then goes back into a slightly modified verse riff:

[ Tab from: http://www.guitartabs.cc/tabs/d/dave_matthews_band/warehouse_btab_ver_2.html ]
     1   &   2   &   3   &   4   &       1   &   2   &   3   &   4   &
G|---------------7-------7-----------|---------------7-------7-----------|    
D|---------------------------7-------|-------------------------------7---|    
A|-----------9-----------------------|---------9-9---------------r-------|    
E|---7---7---------------------------|---7---7---------------------------|


     1   &   2   &   3   &   4   &       1   &   2   &   3   &   4   &
G|---------------7-------7-----------|-----------------------------------|    
D|---------------------------7-------|-----------------------------------|    
A|-----------9-----------------------|-----------------------------------|    
E|---7---7---------------------------|---7---\5--5---\3--3------/13\-----|

******
Bridge
******


     1   &   2   &   3   &   4   &       1   &   2   &   3   &   4   &
G|-----------------------------------|-----------------------------------|    
D|-----------9-------------------4---|-----------4---2-------------------|    
A|-------9-------7-----------6-------|-------------------------------9---|    
E|---7-------------------4-----------|-------2---------------4-----------|


     1   &   2   &   3   &   4   &       1   &   2   &   3   &   4   &
G|-----------------------------------|-----------------------------------|    
D|-----------------x-----------------|-----------------x-----------------|    
A|-----------------x-----------------|-----------------x-----------------|    
E|-----------------------------------|-----------------------------------|


     1   &   2   &   3   &   4   &       1   &   2   &   3   &   4   &
G|-----------------------------------|-----------------------------------|    
D|-----------------x-----------------|-----------------x-----------------|    
A|-----------------x-----------------|-----------------x-----------------|    
E|-----------------------------------|-----------------------------------|


     1   &   2   &   3   &   4   &       1   &   2   &   3   &   4   &
G|-----------------------------------|-----------------------------------|    
D|-----------------------------------|-----------------------------------|    
A|-----------------------------------|-----------------------------------|    
E|---3-------------------------------|---5-------------------------------|
      \_________________________________/ \______________________________


     1   &   2   &   3   &   4   &       1   &   2   &   3   &   4   &
G|-----------------------------------|-----------------------------------|    
D|-----------------------------------|-----------------------------------|    
A|-----------------------------------|-----------------------------------|    
E|---7-------------------------------|-----------------------------------|
  __/

This is repeated twice.

Right after this, they go back into the intro guitar/voilin thing for six
measures, and on the seventh, the bass returns.


         1       &       2       &       3       &       4       &       
G|-----------------------------------------------------------------------|    
D|-----------------------------------------------------------------------|    
A|-----------------------------------------------------------------------|    
E|-------21h24\21--------19h21\19--------17h19\17--------15h17\15--------|


         1       &       2       &       3       &       4       &       
G|-----------------------------------------------------------------------|    
D|-----------------------------------------------------------------------|    
A|-----------------------------------------------------------------------|    
E|-------14h16\14--------12h14\12--------10h12\10--------9h11\9----------|


.....and straight back into the verse riff again. Pretty fun. 

Little addendum here. I saw DMB at the Gorge last July, and Stefan did a bitchin
little slap solo thingie towards the end of this. It was when Dave does the 
little percussive vocal thing. The S's are for slap, and the P's are for pop.
The lyrics on the second measure are written to match the beat that they are
on so that the tab there makes a bit more sense..

         1       &       2       &       3       &       4       &         
G|-----------------------------------------------------------------------|    
D|-----------------------------------------------------------------------|    
A|-----------------------------------------------------------------------|    
E|-------3---------------------------------------------------------------|

  "So I'm going away...

         1       &       2       &       3       &       4       &
G|-----------------------------------------------------------------------|
D|-----------------------------------7-------7---------------------------|
A|-------------------5---7---------------------------------------3-h-5---|  
E|-------5-------5---------------5-------X-------5-------5---------------|
         S       S       P       P   S           P       S       S
                                           
                               "Like to,   like to,            to  be"   

If slappin's your thing, it sounds cool to accent the song like that. I'll
agree that Stefan is a conservative slapper, but he can do it like awesome
when he does!


Cody-


*****************************************
"Could I have been Anyone Other than Me?"

Dave Mattews
*****************************************

Comments