Dave Matthews Band - Typical Situation Chords & Tabs

 

Typical Situation Chords & Tabs

Dave Matthews Band Chords & Tabs

Version: 5 Type: Tab 0 ratings
1 star 2 stars 3 stars 4 stars 5 stars
comments

Typical Situation Tab

   
----------------------------------------------------
Typical Situation (intro)- Dave Matthews Band
----------------------------------------------------
Tabbed by: Rory Tiernan
Email: Rorytiernan@adelphia.net

Tuning: Standard

e|-----------------------------------------------------------|
B|-----------------------------------------------------------|
G|-----------------------------------------------------------|
D|------9-9----9----9------9-9----9----9------9-9----9----9--|
A|----------10---10------------10---10------------10---10----|
E|---0------------------0------------------8-----------------|
[ Tab from: http://www.guitartabs.cc/tabs/d/dave_matthews_band/typical_situation_tab_ver_5.html ]
e|-------------------------------------------------------<7>--|
B|----------------------------------------------------<7>-----|
G|-------------------------------------------------<7>--------|
D|-----9-9----9----9------9-9----9----9-----9-9---------------|
A|---------10---10------------10---10-----------10------------|
E|---8------------------0-----------------0-------------------|

e|---------------------------------------<12>-----------------|
B|-----------------------------------<12>---------------------|
G|-------------------------------<12>-------------------------|
D|-----9-9----9----9------9-9---------------------------------|
A|---------10---10------------10------------------------------|
E|---8------------------8-------------------------------------|


The harmonics add a little somethin somethin. Sounds good when u very up the picking too.


| /  slide up
| \  slide down
| h  hammer-on
| p  pull-off
| ~  vibrato
| <7>  harmonic
| x  Mute note
=============================================
Comments