Dave Matthews Band - Typical Situation Chords & Tabs

 

Typical Situation Chords & Tabs

Dave Matthews Band Chords & Tabs

Version: 2 Type: Chords 0 ratings
1 star 2 stars 3 stars 4 stars 5 stars
comments

Typical Situation Chords

   
Dave Matthews Band
Typical Situation

This song is really easy to play.  Just listen to the cd to can get the rhythm.  


E|----------------------------------|-----------------------------------|
B|----------------------------------|-----------------------------------|
G|----------------------------------|-----------------------------------|
D|--9-9----9----9----9-9----9----9--|---9-9----9----9--9-9----9----9----|
A|------10---10----------10---10----|-------10---10--------10---10------|
E|0----------------0----------------|-8---------------8-----------------|
  
Ten fingers counting we have each Nine planets around the sun repeat

E|----------------------------------|-----------------------------------|
B|----------------------------------|-----------------------------------|
G|----------------------------------|-----------------------------------|
D|--9-9----9----9----9-9----9----9--|---9-9----9----9--9-9----9----9----|
A|------10---10----------10---10----|-------10---10--------10---10------|
E|0----------------0----------------|-8---------------8-----------------|

Eight ball is the last if you triumphant be Seven oceans pummel the shores of the sea

E|----------------------------------|-----------------------------------|
B|----------------------------------|-----------------------------------|
G|----------------------------------|-----------------------------------|
D|--9-9----9----9----9-9----9----9--|---9-9----9----9--9-9----9----9----|
A|------10---10----------10---10----|-------10---10--------10---10------|
E|0----------------0----------------|-8---------------8-----------------|

It's a typical situation in these typical times Too many choices


E|----------------------------------|-----------------------------------|
B|----------------------------------|-----------------------------------|
G|----------------------------------|-----------------------------------|
D|--9-9----9----9----9-9----9----9--|---9-9----9----9--9-9----9----9----|
A|------10---10----------10---10----|-------10---10--------10---10------|
E|0----------------0----------------|-8---------------8-----------------|
                                                
It's a typical situation in these typical times Too many choices

__________________________________________________________________________
G                             F
Everybody's happy, everybody's free
Am                                         C                         D
We'll keep the big door open, everyone'll come around
G                             F
Why're you different, why're you that way
Am                                         C                         D
If you don't get in line we'll lock you away
__________________________________________________________________________

E|----------------------------------|-----------------------------------|
B|----------------------------------|-----------------------------------|
G|----------------------------------|-----------------------------------|
D|--9-9----9----9----9-9----9----9--|---9-9----9----9--9-9----9----9----|
A|------10---10----------10---10----|-------10---10--------10---10------|
E|0----------------0----------------|-8---------------8-----------------|

[ Tab from: http://www.guitartabs.cc/tabs/d/dave_matthews_band/typical_situation_crd_ver_2.html ]
E|----------------------------------|-----------------------------------|
B|----------------------------------|-----------------------------------|
G|----------------------------------|-----------------------------------|
D|--9-9----9----9----9-9----9----9--|---9-9----9----9--9-9----9----9----|
A|------10---10----------10---10----|-------10---10--------10---10------|
E|0----------------0----------------|-8---------------8-----------------|

Six senses feeling Five around a sense of self


E|----------------------------------|-----------------------------------|
B|----------------------------------|-----------------------------------|
G|----------------------------------|-----------------------------------|
D|--9-9----9----9----9-9----9----9--|---9-9----9----9--9-9----9----9----|
A|------10---10----------10---10----|-------10---10--------10---10------|
E|0----------------0----------------|-8---------------8-----------------|

Four seasons turn on and turn off I can see three corners from this corner


E|----------------------------------|-----------------------------------|
B|----------------------------------|-----------------------------------|
G|----------------------------------|-----------------------------------|
D|--9-9----9----9----9-9----9----9--|---9-9----9----9--9-9----9----9----|
A|------10---10----------10---10----|-------10---10--------10---10------|
E|0----------------0----------------|-8---------------8-----------------|

Two's a perfect number But one, well

X2
________________________________________________________________________
G                             F
Everybody's happy, everybody's free
Am                                         C                         D
We'll keep the big door open, everyone'll come around
G                             F
Why're you different, why're you that way
Am                                         C                         D
If you don't get in line we'll lock you away
_________________________________________________________________________

E|----------------------------------|-----------------------------------|
B|----------------------------------|-----------------------------------|
G|----------------------------------|-----------------------------------|
D|--9-9----9----9----9-9----9----9--|---9-9----9----9--9-9----9----9----|
A|------10---10----------10---10----|-------10---10--------10---10------|
E|0----------------0----------------|-8---------------8-----------------|

It's a typical situation In these typical times

E|----------------------------------|-----------------------------------|
B|----------------------------------|-----------------------------------|
G|----------------------------------|-----------------------------------|
D|--9-9----9----9----9-9----9----9--|---9-9----9----9--9-9----9----9----|
A|------10---10----------10---10----|-------10---10--------10---10------|
E|0----------------0----------------|-8---------------8-----------------|

We can't do a thing about it Too many choices 
__________________________________________________________________________
G                             F
Everybody's happy, everybody's free
Am                                         C                         D
We'll keep the big door open, everyone'll come around
G                             F
Why're you different, why're you that way
Am                                         C                         D
If you don't get in line we'll lock you away
__________________________________________________________________________
Comments