Dave Matthews Band - Two Steps Chords & Tabs

 

Two Steps Chords & Tabs

Dave Matthews Band Chords & Tabs

Version: 2 Type: Tab 0 ratings
1 star 2 stars 3 stars 4 stars 5 stars
comments

Two Steps Tab

   
-=-=-=-=-=-=-=-=-=-=-=-=-=-=-=-=-=-=-=
Dave Matthews Band        
Two Steps            
Crash              
Tabbed by Leandro Koren   
Leandro_koren@yahoo.com.ar
-=-=-=-=-=-=-=-=-=-=-=-=-=-=-=-=-=-=-=

I made some corrections to the other tab of ''Two Steps'', hope you like it.
Here I include the first guitar solo and the first violin solos adapted for guitar.
Hope you like it.

Intro Guitar 1:

In the intro there's a lot of palm muting, listen to it. Try to find the rhythm,
to hear when dave palm the notes and when he not.

     [0:00]
     Dm
E|-|--------------------------------|----------------------------------|-|
B|-|--------------------------------|----------------------------------|-|
G|-|--10----------10----------10----|--10-----------10-----------10----|-|
D|-|--12-12-12-12-12----12-12-12-12-|--12--12-12-12-12-----12-12-12-12-|-|
A|-|--------------------------------|----------------------------------|-|
e|-|--------------------------------|----------------------------------|-|

E|-|--------------------------------|----------------------------------|-|
B|-|--------------------------------|----------------------------------|-|
G|-|--10----------10----------10----|--10-----------10-----------10----|-|
D|-|--12-12-12-12-12----12-12-12-12-|--12--12-12-12-12-----12-12-12-12-|-|
A|-|--------------------------------|----------------------------------|-|
e|-|--------------------------------|----------------------------------|-|

E|-|--------------------------------|----------------------------------|-|
B|-|--------------------------------|----------------------------------|-|
G|-|--10----------10----------10----|--10-----------10-----------10----|-|
D|-|--12-12-12-12-12----12-12-12-12-|--12--12-12-12-12-----12-12-12-12-|-|
A|-|--------------------------------|----------------------------------|-|
e|-|--------------------------------|----------------------------------|-|

E|-|--------------------------------|----------------------------------|-|
B|-|--------------------------------|----------------------------------|-|
G|-|--10----------10----------10----|--10-----------10-----------10----|-|
D|-|--12-12-12-12-12----12-12-12-12-|--12--12-12-12-12-----12-12-12-12-|-|
A|-|--------------------------------|----------------------------------|-|
e|-|--------------------------------|----------------------------------|-|

Do this a lot of times.

Guitar 2 Solo:

[0:16]

E|-|------------|----------|-----------|-----------|-|
B|-|---3-5-6-5--|---3-5-6--|---3-5-6-5-|----3-5-6--|-|
G|-|--2---------|--2-------|--2--------|---2-------|-|
D|-|-0----------|-0--------|-0---------|--0--------|-|
A|-|------------|----------|-----------|-----------|-|
e|-|------------|----------|-----------|-----------|-|

E|-|---------------------|---------------------------------|-|
B|-|----3-6-5-3-5-6-5-3--|----3-5-6-5---3-6-5-3-5-6-8-6-10-|-|
G|-|---2-----------------|---2---------2-------------------|-|
D|-|--0------------------|--0---------0--------------------|-|
A|-|---------------------|---------------------------------|-|
e|-|---------------------|---------------------------------|-|

or another way to play it:

E|-|--------------------------------------------------------|-|
B|-|--------------------------------------------------------|-|
G|-|--7-9-10-9-7-9-10-7-9-10-9-7-9-10-7-10-9-7-9-10-9-7-10--|-|
D|-|--------------------------------------------------------|-|
A|-|--------------------------------------------------------|-|
e|-|--------------------------------------------------------|-|

E|-|-----------------------------------------8-10--|-|
B|-|--------------------------------8----10--------|-|
G|-|--9-7-7-9-10-9-7-9-9-7-5-7-10-9---10-----------|-|
D|-|-----------------------------------------------|-|
A|-|-----------------------------------------------|-|
e|-|-----------------------------------------------|-|


The last part I can't hear it well, so try to figure out,
what are they playing or just improsive there.
And there's another guitar I can't hear it well, so be creative.

And then.
Carter enter here with the drums.

    [0:48]

      Bb C
E|-|---------|-|
B|-|---------|-|
G|-|--7--9---|-|
D|-|--8--10--|-|
A|-|---------|-|
e|-|---------|-|

and before that again with the intro:

      Dm
E|-|--------------------------------|----------------------------------|-|
B|-|--------------------------------|----------------------------------|-|
G|-|--10----------10----------10----|--10-----------10-----------10----|-|
D|-|--12-12-12-12-12----12-12-12-12-|--12--12-12-12-12-----12-12-12-12-|-|
A|-|--------------------------------|----------------------------------|-|
e|-|--------------------------------|----------------------------------|-|

E|-|--------------------------------|----------------------------------|-|
B|-|--------------------------------|----------------------------------|-|
G|-|--10----------10----------10----|--10-----------10-----------10----|-|
D|-|--12-12-12-12-12----12-12-12-12-|--12--12-12-12-12-----12-12-12-12-|-|
A|-|--------------------------------|----------------------------------|-|
e|-|--------------------------------|----------------------------------|-|
         
Verse I:
[ Tab from: http://www.guitartabs.cc/tabs/d/dave_matthews_band/two_steps_tab_ver_2.html ]
Dm  Bb C                        F   Bb Am  Gm
Say my love I came to you with best intentions 
Dm  Bb   C                     F
You laid down and gave to me just what
Bb  Am Gm    F
I'm seeking safe
Bb       Am      Gm     F
Love you drive me to distraction

Boyd Solo I: Intro 3 times
Violin solo for guitar.
These are just the notes of the solo, play it in the octave you like it.
The same with the second solo.

E|-|-------------------------------------------|-|
B|-|-------------------------------------------|-|
G|-|-------------------------------------------|-|
D|-|---5-7--10-12-10--8-7-7--5--3-5-7-8-7-5----|-|
A|-|--5-------------------------------------5--|-|
e|-|-------------------------------------------|-|

E|-|-------------------------------------|-|
B|-|-------------------------------------|-|
G|-|---------------12/14-12--10-10--9-7--|-|
D|-|--5-7-8-10-12------------------------|-|
A|-|-------------------------------------|-|
e|-|-------------------------------------|-|

Verse II:

Dm Bb C                        F
Oh my love do you believe that we
Bb    Am  Gm Dm    Bb    C                        F
Might last a thou   sand years or more if not for this
Bb  Am       Gm        F
Our flesh and blood it ties
Bb         Am      Gm       F
You and me right up time we celebrate oh

Chorus:

C         Gm     Bb Am F
Celebrate we will
F           C        Gm        Bb  Am
Cuz life is short but sweet for certain
F            C      Gm     Bb Am F
Hey we climb on two by two
F     C          Gm   Bb Am
To be sure these days continue 
F      Bb Am  Gm  Dm 
Things we can not change, change, 
all I want to change is...

Boyd Solo: Intro 3 times.
Violin solo for guitar.

Verse III:

Dm Bb C                        F
Hey my love you came to me like wine
Bb    Am Gm   Dm
Comes to that mouth
Bb    C                      F
Grown tired of water all the time
Bb  Am        Gm        F
You quench my heart and 
Bb  Am        Gm       F
You quench my mind and say

Chorus:

C         Gm     Bb Am F
Celebrate we will
F           C        Gm        Bb  Am
Cuz life is short but sweet for certain
F            C      Gm     Bb Am F
Hey we climb on two by two
F     C          Gm   Bb Am
To be sure these days continue 
F      Bb Am  Gm  Dm 
Things we can not, celebrate..
Celebrate, celebrate we will,
Oh you and me, climbing two by two, 
Climbing two by..., climbing two by to two
Two, to be sure
These days continue, things we cannot change, change, change

Verse IV:

Dm  Bb C                        F   Bb Am Gm
Say my love I came to you with best intentions 
Dm  Bb   C                      F
You laid down and gave to me just what
Bb   Am       Gm        F
Love watch me celebrate here

Chorus:

C         Gm     Bb Am F
Celebrate we will
F           C        Gm        Bb  Am
Cuz life is short but sweet for certain
F            C      Gm     Bb Am F
Hey we climb on two by two
F     C          Gm   Bb Am
To be sure these days continue 
F          Bb Am   Gm  Dm 
The things we can, we cannot change
C        Gm      Bb Am F
Celebrate we will, ohh
F            C      Gm     Bb Am F
Climbing two by two, ahh yeah
Climbing two by two
F     C          Gm   Bb Am
Celebrate these days continue
F          Bb Am   Gm  Dm 
Things we cannot change

End: Like intro with all instruments.

Chords:
They are two ways of play the chords:

     Dm     C      Bb    Gm    F      Am
E|-|------|------|-----|-----|------|-----|-|
B|-|------|------|-----|-----|------|-----|-|
G|-|--10--|---9--|--7--|--3--|--10--|--5--|-|
D|-|--12--|--10--|--8--|--5--|---8--|--7--|-|
A|-|------|------|-----|-----|------|-----|-|
e|-|------|------|-----|-----|------|-----|-|

E|-|--1---|--0---|--6--|--3--|--1---|--0--|-|
B|-|--3---|--1---|--6--|--3--|--1---|--1--|-|
G|-|--2---|--0---|--7--|--3--|--2---|--2--|-|
D|-|--0---|--2---|--8--|--5--|--3---|--2--|-|
A|-|------|--3---|--8--|--5--|--3---|--0--|-|
e|-|------|------|--6--|--3--|--1---|-----|-|

The last are the complete chords.
Use them in the way you prefer.
This the best I could do, hope you like it.
Comments