Dave Matthews Band - Two Step Chords & Tabs

 

Two Step Chords & Tabs

Dave Matthews Band Chords & Tabs

Version: 5 Type: Tab 0 ratings
1 star 2 stars 3 stars 4 stars 5 stars
comments

Two Step Tab

   
 Two Step
 by Dave J. Matthews

 ( when it says end riff or rhy fig that does not mean stop playing it it means tha is
  the end of the riff or rhy fig) I hope you can follow it well enough

 guitars one and two are in standard tuning

  rhy fig 1 begins (Guitar one)
   1     &     2     &     3     &     4     &     |
  -------------------------------------------------|
  -------------------------------------------------|
  -x--x--10-x--x--x--10-x--x--x--10-x--x--x--10-x--| repeat three times (end Rhy fig 1)
  -------------------------------------------------|
  -------------------------------------------------|
  -x--x--10-x--x--x--10-x--x--x--10-x--x--x--10-x--|

  Riff A begins (Guitar Two) plays at same time as rhy fig 1
   1     &     2     &     3     &     4     &     |
  -------------------------------------------------|
  -------------------------------------------------|
  ----7-----7-----7-----7-----7-----7-----7-----7--| repeat twice
  -0-----0-----0-----0-----0-----0-----0-----0-----|
  -------------------------------------------------|
  -------------------------------------------------|

					(end Riff A)
   1     &     2     &     3     &     4     &     |
  -------------------------------------------------|
  -------------------------------------------------|
  ----7-----7-----7-----7-----7-----7-----7-----7--|
  -0-----0-----0-----0-----0-----0-----3-----5-----|
  -------------------------------------------------|
  -------------------------------------------------|

  Rhy Fig two begins (Guitar 1)  (w/ riff a)
   1     &     2     &     3     &     4     &     |
  -------------------------------------------------|
  -------------------------------------------------|
  -------10-x--x--x--10-x--x--x--10-x--x--x--10-x--|
  -------------------------------------------------|
  -------------------------------------------------|
  -10----10-x--x--x--10-x--x--x--10-x--x--x--10-x--|

   1     &     2     &     3     &     4     &     |
  -------------------------------------------------|
  -------------------------------------------------|
  -------9--x--x--x--9--x--x--x--9--x--x--x--9\----|
  -------------------------------------------------|
  -------------------------------------------------|
  -8-----8--x--x--x--8--x--x--x--8--x--x--x--8\----|

   1     &     2     &     3     &     4     &     |
  -------------------------------------------------|
  -------------------------------------------------|
  -------------------------------------------------|
  -------5--x--x--x--5--x--x--x--5--x--x--x--5--x--|
  -------5--x--x--x--5--x--x--x--5--x--x--x--5--x--|
  -3-----3--x--x--x--3--x--x--x--3--x--x--x--3--x--|
				    (end Rhy fig two)
   1     &     2     &     3     &     4     &     |
  -------------------------------------------------|
  -------------------------------------------------|
  -------------------------------------------------|
  -x--x--5--x--x--x--5--x--x--x--5--x--x--x--5/----|
  -x--x--5--x--x--x--5--x--x--x--5--x--x--x--5/----|
  -x--x--3--x--x--x--3--x--x--x--3--x--x--x--3/----|

[ Tab from: http://www.guitartabs.cc/tabs/d/dave_matthews_band/two_step_tab_ver_5.html ]
Rhy fig. 3 begins (Guitar 1)
   1     &     2     &     3     &     4     &     |
  -------------------------------------------------|
  -------------------------------------------------|
  -------10-10-10-10-10-10-10-10-10-10-------7--7--|
  -------------------------------------------------|
  -------------------------------------------------|
  -10----10-10-10-10-10-10-10-10-10-10-6-----6--6--|
						   |
Riff b begins (Guitar 2) same time as rhyfig 3     |
   1     &     2     &     3     &     4     &     |
  -------------------------------------------------|
  -------------------------------------------------|
  ----7-----7-----7-----7-----7-----7-----3-----3--|
  -7-----7-----7-----7-----7-----7-----3-----3-----|
  -------------------------------------------------|
  -------------------------------------------------|


  Guitar 1
   1     &     2     &     3     &     4     &     |
  -------------------------------------------------|
  -------------------------------------------------|
  -------9--9--9--9--9--9--9--9--9--9--9--9--9--9--|
  -------------------------------------------------|
  -------------------------------------------------|
  -8-----8--8--8--8--8--8--8--8--8--8--8--8--8--8--|
						   |
  Guitar 2                                         |
   1     &     2     &     3     &     4     &     |
  -------------------------------------------------|
  -------------------------------------------------|
  ----5-----5-----5-----5-----5-----5-----5-----5--|
  -5-----5-----5-----5-----5-----5-----5-----5-----|
  -------------------------------------------------|
  -------------------------------------------------|


  Guitar 1
   1     &     2     &     3     &     4     &     |
  -------------------------------------------------|
  -------------------------------------------------|
  -------------------------------7--7--7--7--7--7--|
  -------3--3--3--3--3--3--------------------------|
  -------3--3--3--3--3--3--------------------------|
  -1-----1--1--1--1--1--1-/6-----6--6--6--6--6--6--|
						   |
  Guitar 2                                         |
   1     &     2     &     3     &     4     &     |
  -------------------------------------------------|
  -------------------------------------------------|
  ----2-----2-----2-----2-----7-----7-----7-----7--|
  -3-----3-----3-----3----/8-----8-----8-----8-----|
  -------------------------------------------------|
  -------------------------------------------------|


  Guitar 1			     (end Rhy fig 3)
   1     &     2     &     3     &     4     &     |
  -------------------------------------------------|
  -------------------------------------------------|
  -------5--5--5--5--5--5--------3--3--3--3--3--3--|
  -------------------------------------------------|
  -------------------------------------------------|
  -5-----5--5--5--5--5--5--3-----3--3--3--3--3--3--|
						   |
  Guitar 2                           (end Riff b)  |
   1     &     2     &     3     &     4     &     |
  -------------------------------------------------|
  -------------------------------------------------|
  ----5-----5-----5-----5-----3-----3-----3-----3--|
  -7-----7-----7-----7-----5-----5-----5-----5-----|
  -------------------------------------------------|
  -------------------------------------------------|


  Rhy Rig 4 begins (Gitar 1)                            (rhy fig 4 ends)
   1   &   2   &   3   &   4   &   | 1   &   2   &   3   &   4   &   |
  ---------------------------------|---------------------------------|
  ---------------------------------|---------------------------------|
  ---------------------------------|---------3-----------7-------0---|
  -----3---3-----------9---9-------|-----------------------------0---|
  -----3---3-----------------------|---------------------------------|
  -1---1---1---1-/-8---8---8---8-\-|-3-------3---3-/-6---6---5-------|
                                                                     |
   Riff C begins (Guitar 2)                             (riff c ends)|
   1   &   2   &   3   &   4   &   | 1   &   2   &   3   &   4   &   |
  ---------------------------------|---------------------------------|
  -1-1---------1-1---------1-1-----|-3-3---------3-3-3---------------|
  ---------2-2---------0-0-----0-0-|---------3-3-----3/7-----5-x-x-x-|
  -----3-3---------2-2-------------|-----5-5----------/8-----7-x-x-x-|
  ---------------------------------|---------------------------------|
  ---------------------------------|---------------------------------|
Comments