Dave Matthews Band - Two Step Chords & Tabs

 

Two Step Chords & Tabs

Dave Matthews Band Chords & Tabs

Version: 4 Type: Tab 0 ratings
1 star 2 stars 3 stars 4 stars 5 stars
comments

Two Step Tab

"TWO STEP"
DAVE MATTHEWS BAND

Tabbed from the Listener Supported video.

Intro
e----------------|
B----------------|
G--10---9---3----|
D--(0)-----------|
A----------(1)---|
E--10---8---3----|
This next little riff is found throughout the song, and also after the
intro riff above.
e-----------------------|
B-----------------------|
G--10--10--10--10--10---|
D--(0)-------------(0)--|
A---------------8-------|
E--10---6---8------10---|
[ Tab from: http://www.guitartabs.cc/tabs/d/dave_matthews_band/two_step_tab_ver_4.html ]
Verse
e--------------------------------------------------|
B--------------------------------------------------|
G--10--7/9--2--7-5-3--10--7/9--2--7-5-3--2--7-5-3--|
D--(0)------3---------(0)------3---------3---------|
A-----------3------------------3---------3---------|
E--10--6/8--1--6-5-3--10--6/8--1--6-5-3--1--6-5-3--|

Chorus
e------------------|
B------------------|
G--2---9--3---7-5--|
D--3---------------|
A--3---------------|
E--1/8-8--3/6-6-5--|

"Things we cannot change..."
e------------|
B------------|
G--2--7-5-3--|
D--3---------|
A--3---------|
E--1--6-5-3--|

Sometimes, when the jam at the end gets real quiet Dave throws this in:
e-----------------------------------------------------|
B-----------------------------------------------------|
G--10--10--10--10--10--10-10-10-10-10-10--10--10--10--|
D--(0)-------------(0)--7--8--7--8--7-------------(0)-|
A---------------8------------------------------8------|
E--10---6---8------10--10-10-10-10-10--6---8------10--|
Comments