Dave Matthews Band - Two Step Chords & Tabs

 

Two Step Chords & Tabs

Dave Matthews Band Chords & Tabs

Version: 2 Type: Bass Tab 0 ratings
1 star 2 stars 3 stars 4 stars 5 stars
comments

Two Step Bass Tab

Dave Matthews Band
Two Step
Cieszynski
Spitfire@ods.ods.net

Intro
|----------------------|-------------------------|
|----------------------|---5------------7----3---|
|5---------------------|-------------------------|
|----------------------|-------------------------|
|----------------------|-------------------------|                            


|----------------------|-------------------------|
|----------------------|-------------------------|
|5-------5----3--------|-5---------5------3------|
|----5------5----------|------5--------5---------|
|----------------------|-------------------------|

|----------------------|-------------------------|
|3---3---3----0--------|-2---2-------------------|
|--3---3---3-----0-----|-------------------------| 
|----------------------|-----------5-5--3--3-----|
|----------------------|-------------------------|

|-----------------------|------------------------|
|-----------------------|------------------------|
|-------------5-----5---|--3----5--3----1--------|
|1------1---------------|---------------------3--|
|-----------------------|------------------------|

|-----------------------|------------------------|
|------------------0--2-|2--2--2--2--------------|
|---3-----3-----3-------|------------1--1--------|
|1-----1-----1----------|------------------3--3--|
|-----------------------|------------------------|

|-----------------------|------------------------|
|-----------------------|------------------------|
|-----------5----5------|--3---5--3--------------|
|1----1-----------------|--------------1-----3---|
|-----------------------|------------------------|
[ Tab from: http://www.guitartabs.cc/tabs/d/dave_matthews_band/two_step_btab_ver_2.html ]
|-----------------------|------------------------|
|-----------------------|------------------------|
|-------------1------1--|------------------------|
|1-----1----------------|5-----5------3-------3--|
|-----------------------|------------------------|


W/Rhy. Fig II,   2x

|----------------------|-------------------------|
|3-----3-----3-----0---|2--2--2--2---------------|
|---3-----3-----3-----0|------------3--3--3--1---|
|----------------------|-------------------------|
|----------------------|-------------------------|

|----------------------|-------------------------|
|----------------------|-------------------------|
|-------------5------5-|-3----5--3------1--------|
|1------1--------------|--------------------3----|
|----------------------|-------------------------|

|----------------------|-------------------------|
|------------------0--2|2--2--2--2---------------|
|---3-----3-----3------|------------3--3--3--1---|
|1-----1-----1---------|-------------------------|
|----------------------|-------------------------|

|----------------------|-------------------------|
|----------------------|-------------------------|
|--------------5-----5-|-3-----5------1----------|
|1------1--------------|-----------------------3-|
|----------------------|-------------------------|

|----------------------|-------------------------|
|----------------------|-------------------------|
|--------------1----1-0|0----0--0------------0---|
|1------1--------------|--------------3---------3|
|----------------------|-------------------------|

|-----------------(0)*-|-------------------------|
|------------------5---|-------------------------|
|---------3--3-3------3|------------1--0--1--0--0|
|1----1-1--------------|3-------3-3--------------|
|----------------------|-------------------------|

|----------------------|-------------------------|
|----------------------|-------------------------|
|------------5--5--5--5|3--3--3--3--1--1--1--1---|
|1--1--1--1------------|-------------------------|
|----------------------|-------------------------|
====
Comments