Dave Matthews Band - Tripping Billies Chords & Tabs

 

Tripping Billies Chords & Tabs

Dave Matthews Band Chords & Tabs

Version: 9 Type: Tab 0 ratings
1 star 2 stars 3 stars 4 stars 5 stars
comments

Tripping Billies Tab

   
-----------------------------------------------------------------------
		  Tripping Billies  Dave Matthews Band
-----------------------------------------------------------------------
Tabbed by:allen
Email:rvhdexpres@aol.com

Tuning: standard

      Intro-2 ways it can be done first is the way dave dose,u need a good
stretch to do it, second is the easy way but its hard to get the right rhythm.
your choice
	Way1
e|--------------------------------------------------------------------|
B|--------------------------------------------------------------------|
G|----4h6-6-6-6-6p4-4-4-4-4-4-4-4-4-4h6-6-6-6-6-6/7-7-7-7-7-----------|
D|----2---2-2-2-2---2-2-2-2-2-2-2-2-2---2-2-2-2-2/4-4-4-4-4-----------|
A|--------------------------------------------------------------------|
E|----5---------5---5---------------5-----------5/7-7-7-7-7-----------|

      Way2
e|--------------------------------------------------------------------|
B|----0h2-2-2-2-2p0-0-0-0-0-0-0h2-2-2-2-2-2-3-3-3---------------------|
G|----2---2-2-2-2---2-2-2-2-2-2---2-2-2-2-2---------------------------|
D|----2---2-2-2-2---2-2-2-2-2-2---2-2-2-2-2-4-4-4---------------------|
A|----0---0-0-0-0---0-0-0-0-0-0---0-0-0-0-0-2-2-2---------------------|
E|--------------------------------------------------------------------|

[ Tab from: http://www.guitartabs.cc/tabs/d/dave_matthews_band/tripping_billies_tab_ver_9.html ]
	Pre-Verse
e|--------------------------------------------------------------------|
B|--------------------------------------------------------------------|
G|----2-4---2-4-7-6-2-4---2-4-6-7-------------------------------------|
D|----0-0---0-0-0-0-0-0---0-0-0-0-------------------------------------|
A|--------------------------------------------------------------------|
E|----2-3---2-3-7-5-2-3---2-3-5-7-------------------------------------|
	verse
e|--------------------------------------------------------------------|
B|--------------------------------------------------------------------|
G|--------4-------7-7-7-7-----4-4-4-4-4-------4-------7-7-7-7--2-4----|
D|------6---------7-7-7-7--x--4-4-4-4-4-----6---------7-7-7-7--0-0----|
A|------7---73/5---5-5-5--x--2-2-2-2-2-----7---7-3/5---5-5-5---------|
E|----5-------------------6---------------5--------------------2-3----|
	chorus
e|--------------------------------------------------------------------|
B|--------------------------------------------------------------------|
G|----7-6--2-4-6-7-2--7--6---2-4-6-7----------------------------------|
D|----0-0--0-0-0-0-0--0--0---0-0-0-0----------------------------------|
A|--------------------------------------------------------------------|
E|----7-5--2-3-5-7-2--7--5---2-3-5-7----------------------------------|
      
| /  slide up
| \  slide down
| h  hammer-on
| p  pull-off
| ~  vibrato
| +  harmonic
| x  Mute note
=======================================================================
Comments