Dave Matthews Band - Tripping Billies Chords & Tabs

 

Tripping Billies Chords & Tabs

Dave Matthews Band Chords & Tabs

Version: 2 Type: Tab 0 ratings
1 star 2 stars 3 stars 4 stars 5 stars
comments

Tripping Billies Tab

name: Tony Castricone

artist: Dave Matthews 

SongTitle: Tripping Billies

Tabs: Live at Luther College Intro (play four times)
------------------
------------------
--6--4--6--4--7---
--2--2--2--2--0---
--x--x--x--x--x---
--5--5--5--5--7---

|-------------------------------------------------------|
|-------------------------------------------------------|
|--2--4------2--4--7--6--2--4-----2--4/6/7--------------|
|--0--0------0--0--0--0--0--0-----0--0-0-0--------------|
|-------------------------------------------------------|
|--2--3------2--3--7--5--2--3-----2--3/5/7--------------|

(rhy. fig. 1)

|-------------------------------------------------------|
|-------------------------------------------------------|
|-----6--4--0------7--7--------4/5--4-------------------|
|-----2--2--0------7--7---------------------9--9--9--9--|
|--------------/5--5--5-----7---------------9--9--9--9--|
|--5---------------------8-------------3/7--7--7--7--7--|
[ Tab from: http://www.guitartabs.cc/tabs/d/dave_matthews_band/tripping_billies_tab_ver_2.html ]
|-------------------------------------------------------|
|-------------------------------------------------------|
|-----6--4--0------7--7--------2--4---------------------|
|-----2--2--0------7--7--------0--0---------------------|
|--------------/5--5--5---------------------------------|
|--5---------------------------2--3---------------------|

(intro to rhy. 
            fig. 2) (rhy. fig. 2)

|------------------|-------------------------------------|
|------------------|-------------------------------------|
|--2--4----4--4--4-|-7--7--7--6--6--6--6--6--2--4/6/7----|
|--0--0----0--0--0-|-0--0--0--0--0--0--0--0--0--0-0-0----|
|------------------|-------------------------------------|
|--2--3----3--3--3-|-7--7--7--5--5--5--5--5--2--3/5/7----|


(rhy. fig. 1)

1. We were above, you were standing underneath us
We were not, yet lovers.
Dragons were smoked, bumbles bees were stinging us
I was soon to be crazy

2. We're wearing nothing, nothing but our shadows
Shadows falling down on the beach sand.
Remembering once, out on the beaches we wore
Pineapple grass bracelets.

3. We all are sitting legs crossed 'round a fire.
My yellow flame, she dances.
Taquila drinking, oh, our minds will wonder
To wonderous places.

(rhy. fig. 2)

1. Eat drink and be marry, for tomorrow we'll die.
Eat drink and be marry, for tomorrow we'll die.
'Cause we're tripping billies.

2&3. So why would you care, to get out of this place.
You and me and all our friends, such a happy human race.
Comments