Dave Matthews Band - Tripping Billies Chords & Tabs

 

Tripping Billies Chords & Tabs

Dave Matthews Band Chords & Tabs

Version: 1 Type: Tab

Tripping Billies Tab

This is the correct tab for tripping billies....
It is taken from storytellers on VH1, This is accurate.
Just listen for the rhythm.

Very first intro:  3X
e:------------------------------------------------------------------|
B:------------------------------------------------------------------|
G:--6-6-6-6--6---6-4--4--4--4-4-4-4--6-6-6-6--6---6-4---7--7-7-7-7--|
D:--2-2-2-2--2---2-2--2--2--2-2-2-2--2-2-2-2--2---2-2---0--0-0-0-0--| 
A:------------------------------------------------------------------|
E:--5-5-5-5--5---5-5--5--5--5-5-5-5--5-5-5-5--5---5-5--/7--7-7-7-7--|

finish w/ this last bar
e:-----------------------------------------------------|
B:-----------------------------------------------------|
G:--6-6-6-6--6---6-4--4--4--4-4-4-4--6-6-6-6--6---6-4--|
D:--2-2-2-2--2---2-2--2--2--2-2-2-2--2-2-2-2--2---2-2--|
A:-----------------------------------------------------|
E:--5-5-5-5--5---5-5--5--5--5-5-5-5--5-5-5-5--5---5-5--|

Second intro:

e:----------------------------------------------------|
B:----------------------------------------------------|
G:--2--4-------2--4---7--6---2--4---------2--4--6--7--|
D:--0--0-------0--0---0--0---0--0---------0--0--0--0--| 2x
A:----------------------------------------------------|
E:--2--3-------2--3---7--5---2--3---------2--3--5--7--|


Verse: listen for the rhythm
[ Tab from: http://www.guitartabs.cc/tabs/d/dave_matthews_band/tripping_billies_tab.html ]
e:------------------------------------------------------------|
B:------------------------------------------------------------|
G:-----6---4-/-6--(0)-----7--7---------4h5p4------------------|
D:-----2------------------7--7--------------------9--9---x-x--|
A:--------------------/5--5--5------7-------------9--9---x-x--|
E:--5-----------------------------8-----------/7--7--7---x-x--|


e:------------------------------------------------------------|
B:------------------------------------------------------------|
G:-----6---4-/-6--(0)-----7--7----x-x-x-----2-----4--4-4-4-4--|
D:-----2------------------7--7----x-x-x-----0-----0--0-0-0-0--|
A:--------------------/5--5--5----x-x-x-----------------------|
E:--5---------------------------------------2-----3--3-3-3-3--|


Chorus:

e:------------------------------------|
B:------------------------------------|
G:--7------6---------2--4--6--7----6--|
D:--0------0---------0--0--0--0----0--| 3x
A:------------------------------------|
E:--7------5---------2--3--5--7----5--|
 
e:-------------------------------|
B:-------------------------------|
G:--7------6---------2--4--6--7--|
D:--0------0---------0--0--0--0--|
A:-------------------------------|
E:--7------5---------2--3--5--7--|

Just like the normal intro, except the last four chords the 
second time through slow down a lot.

e:----------------------------------------------------|
B:----------------------------------------------------|
G:--2--4-------2--4---7--6---2--4---------2--4--6--7--|
D:--0--0-------0--0---0--0---0--0---------0--0--0--0--| 2x
A:----------------------------------------------------|
E:--2--3-------2--3---7--5---2--3---------2--3--5--7--|