Dave Matthews Band - Tripping Billies Chords & Tabs

 

Tripping Billies Chords & Tabs

Dave Matthews Band Chords & Tabs

Version: 2 Type: Bass Tab 0 ratings
1 star 2 stars 3 stars 4 stars 5 stars
comments

Tripping Billies Bass Tab

Dave Matthews Band
Tripping Billies
Kyle McGuire
DMBand44incubus@hotmail.com

Intro
     1   &   2   &   3   &   4   &       1   &   2   &   3   &   4   &
G|-----------------------------------|-----------------------------------|
D|-----------------------------------|-----------------------------------|
A|-----------------------------------|-----------------------------------|
E|-----------------------2-------3---|------------------(3)--2-------3---|

     1   &   2   &   3   &   4   &       1   &   2   &   3   &   4   &
G|-----------------------------------|-----------------------------------|
D|-----------------------------------|-----------------------------------|
A|-----------------------------------|-----------------------------------|
E|---(3)/7---(7)\5-------2-------3---|------------------(3)------2---3---|

     1   &   2   &   3   &   4   &       1   &   2   &   3   &   4   &
G|-----------------------------------|-----------------------------------|
D|-----------------------------------|-----------------------------------|
A|-----------------------------------|-----------------------------------|
E|---5---7---------------------------|-----------------------------------|

Verse
     1   &   2   &   3   &   4   &       1   &   2   &   3   &   4   &
G|---------------------------2-------|-----------0-----------------------|
D|---------------2---0---4-------3---|---r---0-------------------0-------|
A|---0---0---4-----------------------|---------------0--/2---2-----------|
E|-----------------------------------|-------------------------------3---|

     1   &   2   &   3   &   4   &       1   &   2   &   3   &   4   &
G|---------------------------2-------|-----------------------------------|
D|---------------2---0---4-------r---|-----------------------------------|
A|---0---0---4-----------------------|-----------------------------------|
E|-----------------------------------|-------2-------3-------------------|

Chorus
     1   &   2   &   3   &   4   &       1   &   2   &   3   &   4   &
G|-----------------------------------|-----------------------------------|
D|---------------7/9\7---------------|-----------------------------------|
A|-----------9---------9-7h9p7-------|-----------------------------------|
E|---7---7---------------------9\7---|(7)2---3---5---7-------5-----------|
[ Tab from: http://www.guitartabs.cc/tabs/d/dave_matthews_band/tripping_billies_btab_ver_2.html ]
     1   &   2   &   3   &   4   &       1   &   2   &   3   &   4   &
G|-----------------------------------|-----------------------------------|
D|---------------7/9\7---------------|-----------------------------------|
A|-----------9---------9-7h9p7-------|-----------------------------------|
E|-5-7---7---------------------9\7---|(7)2---3---5---7-------5-------5---|

     1   &   2   &   3   &   4   &       1   &   2   &   3   &   4   &
G|-----------------------------------|-----------------------------------|
D|---------------7/9\7---------------|-----------------------------------|
A|-----------9---------9-7h9p7-------|-----------------------------------|
E|---7---7---------------------9\7---|(7)2---3---5---7-------5-----------|

     1   &   2   &   3   &   4   &       1   &   2   &   3   &   4   &
G|-----------------------------------|-----------------------------------|
D|---------------7/9\7---------------|-----------------------------------|
A|-----------9---------9-7h9p7-------|-----------------------------------|
E|-5-7---7---------------------9\7---|(7)2---3---5---7-------------------|

     1   &   2   &   3   &   4   &       1   &   2   &   3   &   4   &
G|---------------------------2-------|-----------0-----------------------|
D|---------------2---0---4-------3---|---r---0-------------------0-------|
A|---r---0---4-----------------------|---------------0--/2---2-----------|
E|-----------------------------------|-------------------------------3---|

     1   &   2   &   3   &   4   &       1   &   2   &   3   &   4   &
G|---------------------------2-------|-----------------------------------|
D|---------------2---0---4-------r---|-----------------------------------|
A|---0---0---4-----------------------|-----------------------------------|
E|-----------------------------------|-------2-------3-------------------|

     1   &   2   &   3   &   4   &       1   &   2   &   3   &   4   &
G|---------------------------2-------|-----------0-----------------------|
D|---------------2---0---4-------3---|---r---0-------------------0-------|
A|---r---0---4-----------------------|---------------0--/2---2-----------|
E|-----------------------------------|-------------------------------3---|

     1   &   2   &   3   &   4   &       1   &   2   &   3   &   4   &
G|---------------------------2-------|-----------------------------------|
D|---------------2---0---4-------r---|-----------------------------------|
A|---0---0---4-----------------------|-----------------------------------|
E|-----------------------------------|-------2-------3-------------------|

====
Comments