Dave Matthews Band - Tripping Billies Chords & Tabs

 

Tripping Billies Chords & Tabs

Dave Matthews Band Chords & Tabs

Version: 1 Type: Bass Tab 0 ratings
1 star 2 stars 3 stars 4 stars 5 stars
comments

Tripping Billies Bass Tab

Title: Tripping Billies
Artist : Dave Matthews Band
Album: Unknown

This is a tough song to play and to figure out so here goes!!


This part is the intro after the bongos. Play this 2 times

G----------------------------------------------|
D----------------------------------------------|
A------------------2--0-----------------0-2----|
E----2-3---2-3----------2-3----2-3-------------|

This is the chorus. It is a cool one. Played 2 times

[ Tab from: http://www.guitartabs.cc/tabs/d/dave_matthews_band/tripping_billies_btab.html ]
G----------------------------------------------|
D------------7--5--4-------------7-------------|
A-----4h7--5---3--2--------4h7--5--------------|
E-5-5-----------------5-5-----------2-3--------|

This is verse. There is a cool little lick in it.


                            The lick is here
G------4---------------------------4-----------------------------|
D-------------------------------------2h4p2----------------------|
A--2----------4h5----0-2--0-----2-------------4----4h5------0--2-|
E-------5-5-5-----2-3---------------------------5-------2-3------|

That is it. The song changes a little bit but the bass stays the same.
It is these three Intro Chorus And Verse which is the whole song
but this is a great song to be able to play. If you have any questions
e-mail me at BouchDude33@netscape.net alright!!
Comments