Dave Matthews Band - Too Much Chords & Tabs

 

Too Much Chords & Tabs

Dave Matthews Band Chords & Tabs

Version: 2 Type: Tab 0 ratings
1 star 2 stars 3 stars 4 stars 5 stars
comments

Too Much Tab

   
=-=-=-=-=-=-=-=-=-=-=-=-=-=
Dave Matthews Band
Too Much
Crash
Tabbed by Leandro Koren
leandro_koren@yahoo.com.ar
=-=-=-=-=-=-=-=-=-=-=-=-=-=

Intro: | D/F# G Bm | D/F# G Ab7 |

E|-|------------|-|------------|-|
B|-|------------|-|------------|-|
G|-|--2--4---7--|-|--2--4---7--|-|
D|-|--0--0---0--|-|--0--0---0--|-|
A|-|------------|-|------------|-|
e|-|--2--3---7--|-|--2--3---6--|-|

Verses & Chorus:
Two guitars in the verse.

Dave's Guitar:
[Acoustic with a little distorsion]
      F#5
E|-|------------------------------------|-|
B|-|------------------------------------|-|
G|-|------------------------------------|-|
D|-|--4-4-------------4-4---------------|-|
A|-|--4-4-------------4-4---------------|-|
e|-|--2-2-------------2-2---------------|-|

Tim's Guitar:
[Electric with clean sound]
           
E|-|------------------------------------|-|
B|-|------------------------------------|-|
G|-|------------------------------------|-|
D|-|------4-2-2-4-2-4---------2---------|-|
A|-|---------------------2-2h4----------|-|
e|-|------------------------------------|-|


Verse:

Straight in, suck up and go
Cool it, swallow, swallow
Breathe deep, take it all it comes cheap
Push it through the doors because in between the lines
I'm gonna pack more lines so I can get in
[ Tab from: http://www.guitartabs.cc/tabs/d/dave_matthews_band/too_much_tab_ver_2.html ]
Ooh traffic jam got more cars than a beach got sand
Suck it up, suck it up, suck it up,
Fill it up until no more
I'm no crazy creep, I've got it coming
To me cause I'm not satisfied
Hunger keep on growing

Chorus:

I eat too much
I drink too much
I want too much
Too much

Verse:

I've got to get it somewhere
I mean, you never know, maybe you're dreaming
Who do you think you're watching
Who do you think you need
Play for me, play more, ten times in the same day
I need more I'm going over my borders
Gonna to take more, more from you, letter by letter

Chorus:

I eat too much
I drink too much
I want too much
Too much

Dave's part in Jam:

E|-|-----------------------------------------------------|-|
B|-|-----------------------------------------------------|-|
G|-|-------5----4----5-4h5--0----5-4h5--0----5-4-5-------|-|
D|-|--------------------------2-----------0--------------|-|
A|-|--------2----3---------------------------------------|-|
e|-|----5------------------------------------------------|-|

E|-|-------------------|-|
B|-|--8--7---8--7---5--|-|
G|-|--X--X---X--X---X--|-|
D|-|--5--4---5--4---2--|-|
A|-|-------------------|-|
e|-|-------------------|-|

Verse:

I told, god, I'm coming to you country
I'm going to eat up you cities, you homes, you know
I've got a stomach full not a chip on my shoulder
I've got this growl in my tummy and I'm gonna stop it today

I eat too much
I drink too much
I want too much
Too much

Hey, ha ha ha ha ha ha
Suck it up, suck it up
Suck it up, suck it up, suck it up, yeah
Suck it up, suck it up, suck it up
Suck it up, suck it up, suck it up, suck it up, baby

I eat too much
I drink too much
I want too much
Too much
Gotta get it somewhere
I eat too much
Too much
Comments