Dave Matthews Band - Too High Chords & Tabs

 

Too High Chords & Tabs

Dave Matthews Band Chords & Tabs

Version: 1 Type: Tab 0 ratings
1 star 2 stars 3 stars 4 stars 5 stars
comments

Too High Tab

Artist - Dave Matthews
Song - Too High

Tuning: standsrd

Intro:
e|--------------------|
B|--------------------|
G|--------------------|
D|----5--5-5---5--5-5-| x4
A|--------------------|
E|-3---------3--------|

Verse:
e|-------|------|------|------|
B|-------|------|------|------|
G|-------|------|------|------|
D|----5--|---5--|---5--|---5--| x4
A|-------|------|------|------|
E|-6-----|-4----|-3----|-4----|

Chorus:
e|--0--|--0---1-1--|--2--|--0--|--0--2--|
B|--1--|--1---1-1--|--3--|--0--|--1--3--|
G|--2--|--0---2-2--|--2--|--0--|--0--2--|
D|--2--|--2---3-3--|--0--|--2--|--2--0--|
A|--0--|--3---3-3--|-----|--2--|--3-----|
E|-----|------1-1--|-----|--0--|--------|

e|--------------------|--------------------|
B|--------------------|--------------------|
G|--------------------|--------------------|
D|----5--5-5---5--5-5-|----5--5-5---5--5-5-|
A|-2------------------|-3---------5--------|
E|-0---------0--------|--------------------|

Interlude:
e|--------------------|--------------------|
B|--------------------|--------------------|
G|--------------------|--------------------|
D|----5--5-5---5--5-5-|----5--5-5---5--5-5-|
A|--------------------|--------------------|
E|-3---------3--------|-3---------3--------|

Verse:
e|----------------|--------------|
B|----------------|--------------|
G|----------------|--------------|
D|------5------5--|-----5-----5--|
A|----------------|--------------|
E|--6-------4-----|--3-----4-----|
 |                               | x4
e|----------------|--------------|
B|---------(5)-1--|--------------|
G|-(4)-(2)--5--2--|--------------|
D|--5---3---5--2--|--5--5--5--5--|
A|--5---3---3--0--|--------3-----|
E|--3---1---------|--3--1-----5--|

Chorus:
e|--0--|--0---1-1--|--2--|--2--|--0--|--0--2--|
B|--1--|--1---1-1--|--3--|--3--|--0--|--1--3--|
G|--2--|--0---2-2--|--2--|--2--|--0--|--0--2--|
D|--2--|--2---3-3--|--0--|-----|--2--|--2--0--|
A|--0--|--3---3-3--|-----|--3--|--2--|--3-----|
E|-----|------1-1--|-----|-----|--0--|--------|

e|--------------------|--------------------|
B|--------------------|--------------------|
G|--------------------|--------------------|
D|----5--5-5---5--5-5-|----5--5-5---5--5-5-|
A|-2------------------|-3---------5--------|
E|-0---------0--------|--------------------|

Interlude:
e|--------------------|--------------------|
B|--------------------|--------------------|
G|--------------------|--------------------|
D|----5--5-5---5--5-5-|----5--5-5---5--5-5-|
A|--------------------|--------------------|
E|-3---------3--------|-3---------3--------|

Bridge:
e|------------------------|
B|------------------------|
G|------------------------|
D|---5-----5-----5-----5--|
A|-------------3----------|
E|-3-----1-----------5----|

e|--------------------|--------------------|
B|--------------------|--------------------|
G|--------------------|--------------------|
D|----5--5-5---5--5-5-|----5--5-5---5--5-5-|
A|-2------------------|-3---------5--------|
E|-0---------0--------|--------------------|

e|--------------------|
B|--------------------|
G|--------------------|
D|----5--5-5---5--5-5-|
A|--------------------|
E|-3---------3--------|
[ Tab from: http://www.guitartabs.cc/tabs/d/dave_matthews_band/too_high_tab.html ]
Verse:
e|----------------|--------------|
B|----------------|--------------|
G|----------------|--------------|
D|------5------5--|-----5-----5--|
A|----------------|--------------|
E|--6-------4-----|--3-----4-----|
 |                               | x4
e|----------------|--------------|
B|---------(5)-1--|--------------|
G|-(4)-(2)--5--2--|--------------|
D|--5---3---5--2--|--5--5--5--5--|
A|--5---3---3--0--|--------3-----|
E|--3---1---------|--3--1-----5--|

e|--------------------|
B|--------------------|
G|--------------------|
D|----5--5-5---5--5-5-|
A|--------------------|
E|-3---------3--------|

Chorus:
e|--0--|--0---1-1--|--2--|--2--|--0--|--0--2--|
B|--1--|--1---1-1--|--3--|--3--|--0--|--1--3--|
G|--2--|--0---2-2--|--2--|--2--|--0--|--0--2--|
D|--2--|--2---3-3--|--0--|-----|--2--|--2--0--|
A|--0--|--3---3-3--|-----|--3--|--2--|--3-----|
E|-----|------1-1--|-----|-----|--0--|--------|

e|--------------------|--------------------|
B|--------------------|--------------------|
G|--------------------|--------------------|
D|----5--5-5---5--5-5-|----5--5-5---5--5-5-| x2
A|-2------------------|-3---------5--------|
E|-0---------0--------|--------------------|


Bridge:
e|------------------------|
B|------------------------|
G|------------------------|
D|---5-----5-----5-----5--| x3
A|-------------3----------|
E|-3-----1-----------5----|

e|--------------------|--------------------|
B|--------------------|--------------------|
G|--------------------|--------------------|
D|----5--5-5---5--5-5-|----5--5-5---5--5-5-| x2
A|-2------------------|-3---------5--------|
E|-0---------0--------|--------------------|

e|--------------------|--------------------|
B|--------------------|--------------------|
G|--------------------|--------------------|
D|----5--5-5---5--5-5-|----5--5-5---5--5-5-|
A|--------------------|--------------------|
E|-3---------3--------|-3---------3--------|

e|--------------------|--------------------|
B|--------------------|--------------------|
G|--------------------|--------------------|
D|----5--5-5---5--5-5-|----5--5-5---5--5-5-|
A|-2------------------|-3---------5--------|
E|-0---------0--------|--------------------|

e|--------------------|--------------------|
B|--------------------|--------------------|
G|--------------------|--------------------|
D|----5--5-5---5--5-5-|----5--5-5---5--5-5-|
A|--------------------|--------------------|
E|-3---------3--------|-3---------3--------|

e|--------------------|-------------------|
B|--------------------|-------------------|
G|--------------------|-------------------|
D|----5--5-5---5--5-5-|----5-------5------|
A|--------------------|-------~6----------|
E|-3---------3--------|-3------------6-5--|

Outro:
e|----------------------|---------------------------------|
b|----------------------|---------------------------------|
g|----------------------|--------8-7-----------8--7-------|
d|------5-------5--8-7--|--5--3--8-7-8--7--5-3-8--7--8-7--|
a|--5h6-----5h6----8-7--|--5--3--6-5-8--7--5-3-6--5--8-7--|
E|-----------------6-5--|--3--1------6--5--3-1-------6-5--|

e|----------------------------------------------------|
b|----------------------------------------------------|
g|----0----0------------0----0-----------0----0-------|
d|----------------------------------------------------|
a|-----------~6--5-------------------~6----5----------|
E|-3----1------------6----5----3--1-------------6--5--|
Comments