Dave Matthews Band - The Space Between Chords & Tabs

 

The Space Between Chords & Tabs

Dave Matthews Band Chords & Tabs

Version: 3 Type: Tab 0 ratings
1 star 2 stars 3 stars 4 stars 5 stars
comments

The Space Between Tab

   
Dave Matthews - Space Between
Tabbed by: Bo

This song is very awesome, one of my favourites of DMB. But unfortunately, there
are so few tabs of this song, which i think are correct.
This one is not the way Dave plays it, he's got kinda weird tuning, but it is
absolutely correct for the standard tuning.
I think this is the more comfortable way to play it, cause nobody really likes to
turn down the guitar tuning...
Feel free to contact me if there are any corrections/questions: b.kaiser@gmx.de
Enjoy it!

--------------------------------------------------------------------

Intro:
E--------------2----      E-------------
B--------------3----      B-------------
G---1--1--1----2----  or  G-------------
D---2--2--2----0----      D--6-6-6--0---
A---2--2--2---------      A--7-7-7--0---
E-------------------      E--4-4-4--2---
"You cannot quit me so quickly"
"Is no hope in you for me?" 
"No corner you could squeeze me"
                                    E
"But I've got all the time for you love"



Chorus (chord version) 

   A   A/Gis Gbm  E               A   A/Gis Gbm  E
E--5---5-----5----7---------   ---0---0-----2----0--
B--5---5-----x----5---------   ---2---2-----2----0--
G--6---6-----6----x---------or ---2---1-----2----1--     
D--7---6-----4----6---------   ---2---2-----4----2--
A---------------------------   ---0---0-----4----2--
E---------------------------   ---x---x-----2----0--	  
The space between The tears we cry 
is the laughter that keeps us coming back for more 
The space between The wicked lies 
we tell and hope to keep us 


Verse (use intro chords, but strumm the D-Chord here):
[ Tab from: http://www.guitartabs.cc/tabs/d/dave_matthews_band/the_space_between_tab_ver_3.html ]
safe from the pain 
Will I hold you again
These fickle fuddled words confuse me 
Like will it rain today 
We waste the hours with talking talking 
These twisted games we're playing 


Chorus
We're strange allies with warring hearts 
What a wild eyed beast you be 
The space between The wicked lies 
is where we hope to keep


Verse
Safe from the pain
But will I hold you again
But will I hold....


Bridge:
E-----------------  
B-----------------  
G-----------------  
D--9--7---5--4----  
A--9--7---5--4----  
E--7--5---3--2---- 
Look at us spinning out in the madness of a roller coaster

E----------------- 
B----------------- 
G----------------- 
D--9--7---4--5---- 
A--9--7---4--5---- 
E--7--5---2--3----
You know you went off like a devil in a church in the middle of a crowded room

E------------------------- 
B------------------------- 
G------------------------- 
D--9--7---5--4-3---------- 
A--9--7---5--4-3---------- 
E--7--5---3--2-1----------
All we can do my love is hope we don't take this ship down



Go back to the chorus riff:

The space between Where you smile and hide 
That's where you'll find me if I get to go 
The space between The bullets in our fire fight 
Is where I'll be hiding waiting for you 

The rain that falls splashed in your heart 
Ran like sadness down the window into your room 
The space between our wicked lies is 
Where we hope to keep safe from pain 

(louder part)
Take my hand cause we're 
walkinnnnnnnng out of 
herrrrrre Right out - right out of 
here love is all we need dear 

The space between What's wrong and right 
Is where you'll find me hiding Waiting for you 
The space between Your heart and mine
Is the space we'll fill with time

The space between (end on A)
Comments