Dave Matthews Band - The Space Between Chords & Tabs

 

The Space Between Chords & Tabs

Dave Matthews Band Chords & Tabs

Version: 1 Type: Tab 0 ratings
1 star 2 stars 3 stars 4 stars 5 stars
comments

The Space Between Tab

   
Dave Matthews Band The Space Between.
 Tabbed by Steve Hendriksen Dgnr8311@aol.com.
  


I got this off of an acoustic version I heard. It soungs good
I think. It works too if you get another guitar in dropped-D to 
strum power chords

Intro/Verse/Outro  E Dsub2

     E       E       E         Dsub2 
E---0------0------0--------0---------------------
B---0------0------0--------3---------------------
G---1------1------1--------2---------------------
D---2------2------2--------0----------------------
A---2------2------2-------------------------------
E---0------0------0------------------------------
(Try to hold the Dsub2, but if you have to strum it)

Chorus

E---------------------0------------
B---------------------3------------
G-----6-------6------2-----6-----Repeat but 2nd time
D-----7-------7------0-----7------\"safe from the pain\"
A-----7-------7------0-----7-------- go to verse strum
E-----5-------4------2-----4-------


Play this over the chorus w/ 2nd guitar

E----9-----9---9-10--------------------
B-----10---10------------------------
G-------9----9------------------------
D----------------------------------
A----------------------------------
E----------------------------------

Bridge
[ Tab from: http://www.guitartabs.cc/tabs/d/dave_matthews_band/the_space_between_tab.html ]
E--------------------------------------------------------
B------------------------------------last time go to-------
G-------------------------------------------------------------
D------9----7----6----5---4-x3----------3------------------
A------9----7----6----5---4--------------3-----------------
E------7----5----4----3---2--------------1--------------

You can not quit me so quickly
There's no hope in you in me
No corner you could squeeze me
but I got all the time for you, love

The space between, the tears we cry 
is the laughter that keeps us coming back for more
The space between the wicked lies 
we tell and hope to keep safe from the pain

But will I hold you again
These fickle fuddle words confuse me
Like will it rain today
Waste the hours with talking talking
These twisted games were playing

Were stranger lies with waring hearts
What a wild eye beast you be
The space between our wicked lies we tell 
and hope to keep safe from the pain

But will I hold you again
Will I hold you...

Look at us spining off in the maddness of a roller coaster
You know you went off the devil in a church 
in the middle of a crowded room
all I can do my love is I hope I don't take this ship down

The space between were your smiling hides 
is where you'll find me if i get to go
The space between the bullets in our firefight
is where i'll be hiding waiting for you

The rain that falls, splashing your heart round like
saddnes down your window into your room
The space between our wicked lies 
is where we hope to keep safe from pain

Take my hand cause we're walking out
right out of here
love is all we need dear

The space between what is wrong and right
is where youll find me hiding waiting for you
The space between your heart and mine
is a space we fill with time

The space between
The space between 
:: Ultimate Guitar Archive :: 
http://www.ultimate-guitar.com 



Comments