Dave Matthews Band - The Space Between Chords & Tabs

 

The Space Between Chords & Tabs

Dave Matthews Band Chords & Tabs

Version: 2 Type: Chords 0 ratings
1 star 2 stars 3 stars 4 stars 5 stars
comments

The Space Between Chords

   
-----------------------------------------------------------------------------
                The Space Between - Dave Matthews Band 
-----------------------------------------------------------------------------
Tabbed by: Kotie A.
Email: LastRockShow@hotmail.com

Tuning: Standard (EADGBe)

The intros are wrong in most of the chord versions I've seen, so I decided to
give it a shot. Here's my version, hope it's good.

Verse:
--------------------------------------------
E  Dsus2
        You cannot quit me so quickly
E  Dsus2
        There's no hope in you for me
E  Dsus2
        No corner you could squeeze me
E  Dsus2
        But I got all the time for you, love

Chorus:
--------------------------------------------
A
     The space between
A/G#
     The tears we cry
Dmaj9/F#
     Is the laughter keeps us coming back for more
A
     The space between
A/G#
     The wicked lies
Dmaj9/F#
     We tell and hope to keep
N.C.               Dsus2
     Safe from the pain

Verse:
--------------------------------------------
Dsus2              E        Dsus2
        But will I hold you again?
Dsus2
        These fickle, fuddled words confuse me
E  Dsus2
        Like will it rain today?
E  Dsus2
        We waste the hours with talking, talking
E  Dsus2                                    E
        These twisted games we're playing... 

Chorus:
--------------------------------------------
A                    
     We're strange al-
A/G#
     -lies with warring hearts
Dmaj9/F#                   E/G#
     What a wild-eyed best you be
A
     The space between
A/G#
     The wicked lies
Dmaj9/F#
     We tell and hope to keep us
N.C.               Dsus2
     Safe from the pain
[ Tab from: http://www.guitartabs.cc/tabs/d/dave_matthews_band/the_space_between_crd_ver_2.html ]
Interlude:
--------------------------------------------
Dsus2              E            Dsus2
        But will I hold you a - gain?
Dsus2          E
        Will I hold...
B5                 B5/A                E/G#                   Em/G    B5/F#
        Look at us spinning out in the mad - ness of a roller coast - er
B5                        B5/A             E/G#                            
        You know you went off like a devil in a church
                      Em/G         B5/F#
        In the middle of a crowd - ed room
B5                B5/A         E/G#                  Em/G      F5
        All I can do, my love, is hope we don't take this ship down

Chorus: Play this x5 (There are other lyrics....look'em up!)
--------------------------------------------
A
     The space between
A/G#
     Where you smile and
Dmaj9/F#                                   E/G#
     Hide, is where you'll find me if I get to go
A
     The space between
A/G#
     The bullets in our fire
Dmaj9#                                      E/G#
     Fight is where I'll be hiding, waiting for you
--------------------------------------------
A
     The space between
A/G#
     What's wrong and right
Dmaj9/F#                                     E
     Is where you'll find me hiding, waiting for you
A
     The space between
A/G#
     You heart and
Dmaj9/F#                                    E/G#
      Mine is the space we'll fill with time
--------------------------------------------
Outro: Fade out
--------------------------------------------
A
     The space between
A/G#
     ......
Dmaj9/F#
     ......
--------------------------------------------


There it is! My version, it sounds pretty right, but It looks like it might
be a little long. Sorry bout that =/ Here are chords:

   E    Dsus2    A     A/G#  Dmaj9/F#  B5    B5/A     E/G#   B5/F#    F5
e|-0------0------0------x-------0----------------------0------------------
B|-0------2------2------2-------2----------------------0------------------
G|-1------3------2------2-------2-------4------4-------4-------4----------
D|-2------0------2------2-------0-------4------4-------2-------4-------3--
A|-2-------------0------x-------x-------2------0-------x-------x-------3--
E|-0--------------------4-------2----------------------4-------2-------1--
Comments