Dave Matthews Band - The Dreaming Tree Chords & Tabs

 

The Dreaming Tree Chords & Tabs

Dave Matthews Band Chords & Tabs

Version: 4 Type: Bass Tab 0 ratings
1 star 2 stars 3 stars 4 stars 5 stars
comments

The Dreaming Tree Bass Tab

   
Song:      "The Dreaming Tree" (Studio)
Artist:    Dave Matthews Band (Stefan Lassard/Bass)-(Greg Howard/Chapman Stick)
Album:     Before These Crowded Streets
Tabbed by: Phillip Adrian Trujeque
http://www.BŁtcherBand.com/

Any comments, questions, jokes, threats, suggestions,
corrections, thoughts or concerns...
Please feel free to email me: MedicinalMusic2002@Yahoo.com

******************************[DISCLAIMER]**************************************|
As you all know, the bass parts are somewhat hard to decipher so,               |
Use your best judgement when playing this song. I know I fucked the chorus part |
Because of the picking being used. I just can't hear what the hell he's doing!  |
If you can make it out... hell, you let ME know!                                |
             Guttwrench.com baby!                                               |
********************************************************************************|
Fingering notation:  L1 = left index    R1 = right index
                     L2 = left middle   R2 = right middle
                     L3 = left ring     R3 = right ring
                     L4 = left pinky    R4 = right pinky

Tuning: "Drop D" low to hi (D-A-D-G)
"Intro Theme"
  0:21
7/4
  A          G           F           D     (D)		 		
G|----------|-----------|-----------|-----------||
D|----------|-----------|-----------|-----------||
A|----------|-----------|-----------|-----------||
D|7----(7)--|5---(5)-\--|3-----(3)--|0-----(0)--||

  A    (A)   G   (G)     A     (A)   C      A
G|----------|-----------|-----------|-----------||
D|----------|-----------|-----------|-----------||
A|----------|-----------|-----------|-----------||
D|7----(7)--|5---(5)-\--|0-----(0)--|10-----7---||


"Main Theme" played by: Greg Howard/Chapman Stick
   
      0:48  Dm
            R1   R4    R1 R4  R1   R4   R1 R4                             
          G|---------------------------------||   Repeat 
          D|15---19-----------15---19--------||   During
          A|-----------15-19------------15-19||   Verses I, II & Outro
          D|--------12---------------12------||
 Verse:             L1               L1
VI Standing here... 
V2 From the start...
Outro:........................Take me back...


  Pre-Chorus: 1:53                                         Play 4 x's                        
G|---------------------------|---------------------------||
D|---7----2-----3------2-----|---7----2-----3------2----:||
A|5----x-3-3-1-----0-3---(3)-|5----x-3-3-1-----0-3---(3):|| 
D|---------------------------|---------------------------|| 

   A              (A)
G||-----------------------------||
D||-----------------------------||
A||0--------------(0)-----------||
D||-----------------------------||

 Although this part has the higher-registered Chapman Stick licks in it,
 I wont transcribe it because it can only be done using a 6 string which I dont have.
 It can also be done on the guitar but, I'll just have to send that part to a 
 Guitar-Tab site.

 (this part is picked somewhat lightly)                            
  Chorus:
  A                G                  F                  D        Play 3 x's
G|----------------|------------------|------------------|------------------||
D|----------------|------------------|------------------|------------------||
A|----------------|------------------|------------------|------------------||
D|7----7---7777---|5----5---5555----5|3----3---3333----3|0--0-0----0000---0||
  L1               L1  (repeat L1 pattern)
...Oh, have you no pity, this thing I do


  A                G                  F                  D       A
G|----------------|------------------|------------------|------------------||
D|----------------|------------------|------------------|------------------||
A|----------------|------------------|------------------|5\------0---------||
D|7----7---7777---|5----5---5555----5|3----3---3333----3|------------------||
  L1               L1                       ...won't you speak   please!    

Back to "Intro Theme"

[ Tab from: http://www.guitartabs.cc/tabs/d/dave_matthews_band/the_dreaming_tree_btab_ver_4.html ]
***********************************************************************************|
Here's a little treat for you Bass players who actually have the balls to take the |
forefront. You'll need a 24 fret neck to do this or a 6 string bass.               |
I use a Yamaha TRB-4 24 fretter. Stuff like this is always fun at the music store. |
This is the acoustic guitar intro transposed to bass using the two-hand technique. |
Remember: this intro piece is mostly all right hand technique.                     |
The two-hand technique is made up of all hammer-on's and pull-off's.               |
Have fun and don't loose any hair trying this. It's all about fun baby!  [ PT ]    |
***********************************************************************************|

Intro: as interpreted by bass guitar.

Fingering notation:  L1 = left index    R1 = right index
                     L2 = left middle   R2 = right middle
                     L3 = left ring     R3 = right ring
                     L4 = left pinky    R4 = right pinky

7/4
  R2    R1  R2 R1  R2      R1  R2  R1  R2       R1  R2 R1  R2      R1  R2  R1  R2
G|23----21--23-----23------21--23------23|------21--23-----23------21--23------23||
D|-------------21------------------21----|-------------21------------------21----:|   Repeat
A|12------------------(12)---------------|12------------------(12)---------------:|    until
D|---------------------------------------|---------------------------------------|| vocals enter
  L1                   L1                 L1                   L1

|*********************************************************************************|
  0:21
  A                   (A)                 G                   (G)                          
        R1  R2 R1  R2      R1  R2  R1  R2       R1  R2 R1  R2      R1  R2  R1  R2
G|------21--23-----23------21--23------23|------21--23-----23------21--23------23||
D|-------------21------------------21----|-------------21------------------21----:|
A|---------------------------------------|---------------------------------------:|
D|7-------------------(7)----------------|5-------------------(5)\---------------||
  L1                   L1                 L1                   L1


  F                   (F)                 D                   (D)
        R1  R2 R1  R2      R1  R2  R1  R2       R1  R2 R1  R2      R1  R2  R1  R2
G|------21--23-----23------21--23------23|------21--23-----23------21--23------23||
D|-------------21------------------21----|-------------21------------------21----:|
A|---------------------------------------|---------------------------------------:|
D|3-------------------(3)----------------|0-------------------(0)----------------||
  L1                   L1                 pull off                  

  A                   (A)                 G                   (G)
        R1  R2 R1  R2      R1  R2  R1  R2       R1  R2 R1  R2      R1  R2  R1  R2
G|------21--23-----23------21--23------23|------21--23-----23------21--23------23||
D|-------------21------------------21----|-------------21------------------21----:|
A|---------------------------------------|---------------------------------------:|
D|7-------------------(7)----------------|5-------------------(5)\---------------||
  L1                   L1                 L1                   L1
  
  D                   (D)                 C                     A
        R1  R2 R1  R2      R1  R2  R1  R2       R1  R2 R1  R2      R1  R2  R1  R2
G|------21--23-----23------21--23------23|------21--23-----23------21--23------23||
D|-------------21------------------21----|-------------21------------------21----:|
A|---------------------------------------|---------------------------------------:|
D|0-------------------(0)----------------|10--------------------7----------------||
  pull off                                L1                    L1                             

|*********************************************************************************|
No "Tab-ware" programs were used in any way, shape or form to tab this.
This was all blood-sweat-tears from the ears baby! I'll be tabbing out a lot of 
TOOL basslines pretty soon.
Comments