Dave Matthews Band - The Dreaming Tree Chords & Tabs

 

The Dreaming Tree Chords & Tabs

Dave Matthews Band Chords & Tabs

Version: 2 Type: Bass Tab 0 ratings
1 star 2 stars 3 stars 4 stars 5 stars
comments

The Dreaming Tree Bass Tab

   
The Dreaming Tree

As played by Dave Matthews Band on 'Before these crowded streets'

Transcribed at 9:06pm, July 7th, 1998 by Cody Rahn

(Elaboration is welcome)

\=slide up*
/=slide down*
H=hammer
P=pulloff

Probably the most articulate bass line ever (in DMB), so enjoy!

Don't forget, 7/4 time :)

Oh, you need a high-C string as well. Capo at 5th fret if you have a 
4-string, and play as though the capo is the 0-fret.


************
Intro/chorus
************


     1   &   2   &   3   &   4   &   5   &   6   &   7   &
C|-----------------------------------------------------------|
G|-----------------------------------------------------------|
D|-----------------------------------------------------------|
A|-----------------------------------------------------------|
E|---5-------------------------------------------------------|
B|-----------------------------------------------------------|

     1   &   2   &   3   &   4   &   5   &   6   &   7   &
C|-----------------------------------------------------------|
G|-----------------------------------------------------------|
D|-----------------------------------------------------------|
A|-----------------------------------------------------------|
E|---3-------------------------------------------------------|
B|-----------------------------------------------------------|

     1   &   2   &   3   &   4   &   5   &   6   &   7   &
C|-----------------------------------------------------------|
G|-----------------------------------------------------------|
D|-----------------------------------------------------------|
A|-----------------------------------------------------------|
E|-----------------------------------------------------------|
B|---6-------------------------------------------------------|

     1   &   2   &   3   &   4   &   5   &   6   &   7   &
C|-----------------------------------------------------------|
G|-----------------------------------------------------------|
D|-----------------------------------------------------------|
A|-----------------------------------------------------------|
E|-----------------------------------------------------------|
B|---3-------------------------------------------------------|
[ Tab from: http://www.guitartabs.cc/tabs/d/dave_matthews_band/the_dreaming_tree_btab_ver_2.html ]
     1   &   2   &   3   &   4   &   5   &   6   &   7   &
C|-----------------------------------------------------------|
G|-----------------------------------------------------------|
D|-----------------------------------------------------------|
A|-----------------------------------------------------------|
E|---5-------------------------------------------------------|
B|-----------------------------------------------------------|

     1   &   2   &   3   &   4   &   5   &   6   &   7   &
C|-----------------------------------------------------------|
G|-----------------------------------------------------------|
D|-----------------------------------------------------------|
A|-----------------------------------------------------------|
E|---3-------------------------------------------------------|
B|-----------------------------------------------------------|

     1   &   2   &   3   &   4   &   5   &   6   &   7   &
C|-----------------------------------------------------------|
G|-----------------------------------------------------------|
D|-----------------------------------------------------------|
A|---3-------------------------------------------------------|
E|-------------------------------5---------------------------|
B|-----------------------------------------------------------|

*****
Verse
*****

Toughie...repeat w/ adlib

     1   &   2   &   3   &   4   &   5   &   6   &   7   &
C|-----------9-------0-------------------9-------0-----------|
G|--10-------------------9------10-------------------9-------|
D|---------------0-----------0---------------0-----------0---|
A|-----------------------------------------------------------|
E|-----------------------------------------------------------|
B|-----------------------------------------------------------|

Pre-chorus riff:

(The D being on the open string will make sense once you start repeating it)

     1   &   2   &   3   &   4   &   5   &   6   &   7   &
C|-----------------------------------------------------------|
G|-----------------------------------------------------------|
D|---0-------7-----------5---------------3-----------3---2---|
A|---------------0---3-------0---1---------------1-----------|
E|-------------------------------------------3---------------|
B|-----------------------------------------------------------|

Rep 4 times. Then back to the chorus/intro riff.


So, that's that. Hope you enjoy!

-Cody

**********************************
"When I, bury me deep,
and place two speakers at my feet.
Or place a guitar in my hand.
And always jam Dave Mattews Band."
**********************************


Comments