Dave Matthews Band - Stay Chords & Tabs

 

Stay Chords & Tabs

Dave Matthews Band Chords & Tabs

Version: 3 Type: Tab 0 ratings
1 star 2 stars 3 stars 4 stars 5 stars
comments

Stay Tab

   
=-=-=-=-=-=-=-=-=-=-=-=-=-=-=-=-=-=
Dave Matthews Band
Stay (Wasting Time) [5:35]
[Matthews/Lessard/Moore]
Before This Crowded Streets
Tabbed by Leandro Koren
leandro_koren@yahoo.com.ar
=-=-=-=-=-=-=-=-=-=-=-=-=-=-=-=-=-=

Intro & Verses:

Dave's Guitar:
       
      Bb               D#                          Bb
E|-|-----------------------------|--------------------|-|
B|-|-----------------------------|--------------------|-|
G|-|--10--10-10----10--8-8-8-8-8-|--8-8-8-8-8-8-8/10--|-|
D|-|---8---8--8-----8--8-8-8-8-8-|--8-8-8-8-8-8-8/-8--|-|
A|-|-----------------------------|--------------------|-|
e|-|-----------------------------|--------------------|-|

Tim's Guitar:

E|-|-----------------------------|--------------------|-|
B|-|-----------------------------|--------------------|-|
G|-|--10--10------10--8-7-8-8-8--|--8h7-7-8-8-8-8/10--|-|
D|-|---8---8-------8--8-8-8-8-8--|--8-8-6-6-6-6-6/8---|-|
A|-|-----------------------------|--------------------|-|
e|-|-----------------------------|--------------------|-|

Or the easy way:

E|-|-----------------------------|--------------------|-|
B|-|-----------------------------|--------------------|-|
G|-|--10--10------10--8-7-8-8-8--|--8h7-7-8-8-8-8/10--|-|
D|-|-----------------------------|--------------------|-|
A|-|-----------------------------|--------------------|-|
e|-|-----------------------------|--------------------|-|

or another way:

E|-|--------------------------------------|-|
B|-|--6-6-6----6-4--3-4-4-4h3--3-4-4-4h6--|-|
G|-|--7-7-7----3-3--3-3-3-3-3--3-3-3-3-3--|-|
D|-|--8-8-8-------------------------------|-|
A|-|--------------------------------------|-|
e|-|--------------------------------------|-|

For the rhythm just play Bb and D#.

Verse:
[ Tab from: http://www.guitartabs.cc/tabs/d/dave_matthews_band/stay_tab_ver_3.html ]
We were walking
Just the other day
It was so hot outside
You could fry and egg
Remember you were talking
I watched the sweat ran down your face
Reached up and caught it at your chin
Licked my fingertip, we were, we were, we...

Chorus: D#maj7 F Dmaj7 C | D#maj7 F D#maj7 F |

E|-|-----------------|-----------------|-|
B|-|-----------------|-----------------|-|
G|-|--7--10---7---5--|--7--10---7---2--|-|
D|-|--8--10---8---5--|--8--10---8---3--|-|
A|-|--6---8---6---3--|--6---8---6---3--|-|
e|-|-----------------|--------------1--|-|

Wasting time
Let the hours roll by
Doing nothing for the fun
Little taste of the good life
Whether right or wrong
Makes us want to stay, stay, stay
For awhile

After verse:

E|-|--8-8-8-8-6--------------------------|-|
B|-|------------9-6-6-8-8-8-8-8-8-9-9-9--|-|
G|-|-------------------------------------|-|
D|-|-------------------------------------|-|
A|-|-------------------------------------|-|
e|-|-------------------------------------|-|

Verse:

Later on the sun began to fade
Then the clouds rolled over our heads
And it began to rain
Oh were dancing mouths open
We were splashing tongue tastes
For a moment this good time would never end
You and me
You and me

Chorus:

Just wasting time
I was kissing you
You were kissing me love
From a good day into the moonlight
Now a night so fine
Makes us want to stay, stay, stay
For awhile
Makes you wanna, makes me wanna...
Wasting time
I shall miss this things
When it all rolls by
What a day
Wannna stay, stay, stay for awhile

Jam:
                              Eb E  F
E|-|-----------------------------------|-|
B|-|-----------------------------------|-|
G|-|---------------------------8-9-10--|-|
D|-|----8---8------------------X-X--X--|-|
A|-|------7---7---------6h8p6--6-7--8--|-|
e|-|--6---------6-7-8-8----------------|-|

Hey love
Oh just groping you
Rolling in the mud
Stay awhile
Come on love
Wanna stay, stay, stay for awhile
Makes me wanna, makes you wanna stay...
Makes me wanna, makes you wanna stay...
Makes me wanna, makes you wanna stay...
Makes me wanna, makes you wanna stay...
Comments