Dave Matthews Band - Stay Or Leave Chords & Tabs

 

Stay Or Leave Chords & Tabs

Dave Matthews Band Chords & Tabs

Version: 5 Type: Tab 0 ratings
1 star 2 stars 3 stars 4 stars 5 stars
comments

Stay Or Leave Tab

Dave Matthews Band
Stay or Leave
Some Devil
Standard Tuning

figure out the strumming patterns for yourself

Verse
E:--(2)---(2)-----(5)---(3)---(2)----(2)---------------
B:---3-----3-------5-----3-----3------3------3------3--
G:---4-----2-------6-----4-----2------2------x------x--
D:---4-----4---5/7-7---5-5---4-4---0--0---2--2------2--
A:-2-2---5-5-------------------------------------4--4--
E:-----------------------------------------------------

E:--(2)---(2)-----(5)---(3)--------
B:---3-----3-------5-----3----3----
G:---4-----2-------6-----4----2----
D:---4-----4---5/7-7---5-5--4-4---
A:-2-2---5-5----------------------
E:--------------------------------

"Stay or Leave"
E:-0-----3-----2--------
B:-0-----0-----3-----2--
G:-0-----0-----2-----2--
D:-2-----0-----0-----2--
A:-2-----2-----------4--
E:-0-----3--------------
[ Tab from: http://www.guitartabs.cc/tabs/d/dave_matthews_band/stay_or_leave_tab_ver_5.html ]
"So What to do..."
E:---(4)----(3)---(2)------------(4)--(4)---2------------------(4)----(3)--
B:----5------3-----3------2-------5----5----3------2----2-------5------3---
G:----4------4-----2------2-------4----4----2------2----2-------4------4---
D:-/6-6----5-5---0-0------2----/6-6----6--0-0------2----2----/6-6----5-5---
A:----------------------4-4----------------------4-4----0------------------
E:-----------------------------------7-------------------------------------
 
Lead Into "Remember we used to..."
E:--(2)---(2)-----(5)-
B:---3-----3-------5--
G:---4-----2-------6--
D:---4-----4---4/7-7--
A:-2-2---5-5----------
E:--------------------
 

"Remember we used to..."
E:---3-----0--------------
B:---3-----0-----6-----5--
G:---4-----0-----x-----x--
D:---5-----2-----x-----2--
A:---5-----2---5-5---4-4--
E:-3-3-----0--------------
 
or
E:---3-----0--------------
B:---3-----0--------------
G:---4-----0-----7-----6--
D:---5-----2-----7-----7--
A:---5-----2---5-5---4-4--
E:-3-3-----0--------------
   


"What day is this..."
E:-0--------------(4)---0------------
B:-0----3----2-----5----0----3----2--
G:-0----0----2-----4----0----0----2--
D:-2----0----2---6-6----2----0----2--
A:-2----2---------------2----2-------
E:-0----3---------------0----3-------
                 
or

E:-0---------5-----(4)---0---------5--
B:-0----3----2------5----0----3----2--
G:-0----2----2------4----0----2----2--
D:-2----0----2---/6-6----2----0----2--
A:-2---------------------2------------
E:-0---------------------0------------

This is the closest version that i have seen. There is another one that
you play with a capo on the 7th fret but i think this one is better.
Comments