Dave Matthews Band - Stay Or Leave Chords & Tabs

 

Stay Or Leave Chords & Tabs

Dave Matthews Band Chords & Tabs

Version: 3 Type: Tab 0 ratings
1 star 2 stars 3 stars 4 stars 5 stars
comments

Stay Or Leave Tab

Well I was looking for some tabs of this song and couldn't find anything descent
enough to look at for more than 3 seconds.  So here's my version of 'Stay or Leave'.
I think you will find it fairly accurate.

Listen to the song for timing, and figure out the chords on your own.
I'm too lazy to do either.


I. Intro/Verse
e ------------------------------------------------------------------
B ----3333----3333------3333----3333----3333----3333----3333----3333
G ----2222----2222-0h2--2222-0--0000----2222----2222----0000----2222
D ----0000-0--0000------0000----0000-4--4444-0--0000-2--2222----0000
A -2---------------------------------------------------------4------
E ------------------------------------------------------------------

e -------------------------------------------5--5555---------5--5555
B ----3333----3333------3333----3333----3333-3--3333----3333-3--3333
G ----2222----2222-0h2--2222-0--0000----2222-2--2222----2222-2--2222
D ----0000-0--0000------0000----0000-4--4444-4--4444-4--4444-4--4444
A -2----------------------------------------(2--2222)-------(2--2222)
E ------------------------------------------------------------------


II. ("Stay or leave")(Do whatever strum pattern tickles you)
e -0--2--2--0-------------2-----------------0-----------------------
B -0--3--3--2-------------2-----------------2-----------------------
G -0--0--2--2---I do this 2 instead of this 2 the second time around
D -2--0--0--2-------------2-----------------2-----------------------
A -2--x-----0-------------0-----------------0-----------------------
E -0--3-------------------------------------------------------------


III. (The "So what to do, with the rest of the days..." part)
e -4--3--2--0--4--3--2--0--3
B -5--3--3--2--5--3--3--2--3
G -4--4--2--2--4--4--2--2--0
D -6--5--0--2--6--5--0--2--0
A -4--3-----0--4--3-----0--2
E -------------------------3


IV. ("That I could have done")
e ------------------------------------------------------------------
B ----3333----3333------3333----3333----3333----3333----3333----3333
G ----2222----2222-0h2--2222-0--0000----2222----2222----0000----2222
D ----0000-0--0000------0000----0000-4--4444-0--0000-2--2222----0000
A -2---------------------------------------------------------4------
E ------------------------------------------------------------------
[ Tab from: http://www.guitartabs.cc/tabs/d/dave_matthews_band/stay_or_leave_tab_ver_3.html ]
e ------------------------------
B ----3333----3333------3--3--33
G ----2222----2222-0h2--2--2--22
D ----0000-0--0000------0--0--00
A -2--------------------2--2--22
E ------------------------------


V. ("Remember we use to dance")
e -3--3--0--0--0--0--0--3--0--4--0--3--0
B -3--3--0--0--0--0--0--3--2--5--0--3--2
G -4--4--0--0--7--6--0--0--2--4--0--0--2
D -5--5--2--2--7--7--2--0--2--6--2--0--2
A -5--5--2--2--5--4--2--2--0--4--2--2--0
E -3--3--0--0--------0--3--------0--3---


VI.
e ------------------------------
B ----3333----3333------3--3--33
G ----2222----2222-0h2--2--2--22
D ----0000-0--0000------0--0--00
A -2--------------------2--2--22
E ------------------------------


And now to put it all together

Part:
I (Intro)
I (Verse)
I
II
I
I
II
III
IV
V
III
VI
V


Lyrics:
Maybe different but remember 
Winters warm there you and I 
Kissing whiskey by the fire 
With the snow outside 
And the summer comes 
The river swims at midnight shiver cold 
Touch the bottom you and I 
With muddy toes 

Stay or leave
I want you not to go but you should
It was good as good goes 
Stay or leave I want you not to go but you did 

Wake up naked drinking coffee 
Making plans to change the world 
While the world is changing us 
It was good good love 
You used to laugh under the covers 
Maybe not so often now 
The way I used to laugh with you 
Was loud and hard 

Stay or leave 
I want you not to go but you should 
It was good as good goes 
Stay or leave I want you not to go but you did 

So what to do 
With the rest of the days afternoon hey 
Isn't it strange how we change 
Everything we did 
Did I do all that I should 

That I coulda done

Remember we used to dance 
And everyone wanted to be 
You and me 
I want to be too 
What day is this 
Besides the day you left me 
What day is this
Besides the day you went 
So what to do 
With the rest of the days afternoon hey 
Well isn't it strange how we change 
Everything we did 
Did I do all that I could 

Remember we used to dance 
And everyone wanted to be 
You and me, I want to be too
What day is this 
Besides the day you went away 
What day is this?


And now the crap no one reads:

Tabbed by Kevin aka KevEnder
E-mail me with how stupid you are for thinking the tab is wrong at:
biogladiator@juno.com
Comments