Dave Matthews Band - Stay Or Leave Chords & Tabs

 

Stay Or Leave Chords & Tabs

Dave Matthews Band Chords & Tabs

Version: 1 Type: Tab 2 ratings
1 star 2 stars 3 stars 4 stars 5 stars
comments

Stay Or Leave Tab

Stay or Leave
by Dave Matthews
Tabbed by Adam Hanley (AHanley@wooster.edu)

NOTE: This song is in a raised baritone tuning (low to high: B,e,a,d,f#,b).. Either capo on the 7th fret or retune your guitar.. If you retune, I'd suggest tuning your a,d,g, and e strings up 2 half steps and your b up 3 half steps.. you'll have to do without a high b and move all these chords up one set of strings (ignore your low E), but it's less stressful than tuning up 7 half steps.



I) Intro/Verse

b:--------0----------------|--------0--------|
f#--------3--1--3--3--3--3-|--------3--1--3--|
d:--0--0--0--0--0--0--2--0-|--0--0--0--0--0--|
a:--2--0--4--2--0--0--0--0-|--2--0--4--2--4--|
e:--2--2-/5--3--2-----0----|--2--2-/5--3--2--|
B:--0--3-----------3-----2-|--0--3-----------|
          *                         *

II) Chorus:
[ Tab from: http://www.guitartabs.cc/tabs/d/dave_matthews_band/stay_or_leave_tab.html ]
b:--0--0--3--2--|
f#--1--1--0--3--|
d:--2--0--0--2--|
a:--2--2--0--0--|
e:--0--3--2-----|
B:--------3-----|


III) Post Chorus ("..but you did")

b:-----------------------------------|
f#--3--3--3--3--3--3--3--3--3--3--3--|
d:--2--2--2--2--2--2--2--2--2--2--2--|
a:--0--0--0--0--0--0--0--0--0--0--0--|
e:--4--3--------4--------------4--3--|
B:--------3--2-----0--3--2-----------|



IV) Bridge ("remember we used to dance..")

b:--------|-----3--------|--------2-----|--------2--|
f#--1--1--|--1--0--3--3--|--1--1--3--3--|--1--1--3--|
d:--0--0--|--2--0--2--2--|--2--0--2--2--|--2--0--2--|
a:--2--2--|--2--0--0--0--|--2--2--0--0--|--2--2--0--|
e:--3--3--|--0--2--------|--0--3-----4--|--0--3-----|
B:--------|-----3--2--2--|--------------|-----------|


Order:

I    x4
II   x3
I    x3
II   x3
III  x1
I    x1.5
IV   x1
III  x1 
I    x.5
IV   x1

* end on this chord during the repeats of I) that last 1.5 and .5
Comments