Dave Matthews Band - Song That Jane Likes Chords & Tabs

 

Song That Jane Likes Chords & Tabs

Dave Matthews Band Chords & Tabs

Version: 3 Type: Bass Tab 0 ratings
1 star 2 stars 3 stars 4 stars 5 stars
comments

Song That Jane Likes Bass Tab

title: the song jane likes
artist: dave matthews band
album: remember two things

intro

G----------5---5---------------------|
D-0------5---3---3-5-----------------| - not too sure bout this part
A------3-------------3-3--------0----|
E------------------------5-3---------|


verse
there are 3 different parts that are played throughout the song:

part 1
                              (11 and 12 not 1's and 2's)
G----------------------------11/12\11--|
D--------------------------------------|
A-----2-3-2-0-0-0--------5-5-----------|
E-3-3-------------3/1-11---------------|
                      ^ (1's not 11)

part 2
G---------------------------------|
D---------------------------------|
A-----2-3-2-0-0-0--------2-3-2-0--|
E-3-3-------------3/1-11----------|

part 3
G------------------------------7--|
D----------------------------7----|
A-----2-3-2-0-0-0--------5-5------|
E-3-3-------------3/1-11----------|

[ Tab from: http://www.guitartabs.cc/tabs/d/dave_matthews_band/song_that_jane_likes_btab_ver_3.html ]
chorus
G--------------|
D--------------|
A--------------| x2
E-00-22-33-55--|

G------------------------------------|
D-7-9-10---10---10---10---10---------|
A--------8----8----8----8----8-------|
E------------------------------/13\--|

outro
G-------------------------------------------|
D----------------4-5-7-----6----------------|
A-0-0-02-3/5-5-5-------5-6---4-5-5-3-2------|
E--------------------------------------2-3--|


song order:

intro-2x
bridge(no vocal)-part 1
                 part 2
                 part 3
                 part 2(sax comes in)
                 part 1
                 part 3
                 part 2
1st verse-part 2 }(repeat 2
          part 3 }  more times)
     then part 3 again
chorus
2nd verse-part 2
          part 1
          part 2
          part 3
          part 2
chorus
3rd verse-part 1
          part 2
chorus
intro-3x
outro

thats it. fun jam and easy
-dan



eat, drink, and be merry, for tomorrow we die-DMB
Comments