Dave Matthews Band - Some Devil Chords & Tabs

 

Some Devil Chords & Tabs

Dave Matthews Band Chords & Tabs

Version: 3 Type: Tab 0 ratings
1 star 2 stars 3 stars 4 stars 5 stars
comments

Some Devil Tab

-------------------------------------------------------------------------------
			     SOME DEVIL - Dave Matthews
-------------------------------------------------------------------------------
Tabbed by: Caroline Dikselis
Email: Chelsea300m@aol.com

Tuning: Standard


Alright you know how it goes, just follow the tabs to the rhythm, and youˇ¦re great. 
sounds exactly like the actual song, so go for it!

Settings on a Marshall AMP:

Gain 1 and 2: 3
Treble: 8
Contour: 7
Bass: 9
Volume: 5 or 6
Reverb: 0 (none)

::Introduction and verses::

e|----------------------------------------------------------3/x-----------|
B|----------------------------------------------------------0/x-----------|
G|-----------8-8\6--6--6----6-6\4--4------------------------0/5-----------|
D|-----------9-9\7--7--7----7-7\6--6------------------------0/7-----------|
A|--------------------------------------------------------2-2/7-----------|
E|-----(7)--------------(7)----------(0)-------(0)------3---3/5-----------|


And repeat until chorus.


::CHORUS::
[ Tab from: http://www.guitartabs.cc/tabs/d/dave_matthews_band/some_devil_tab_ver_3.html ]
                                          Very lightly
e|--------------------------------------------------------------------------|
B|--------------------------------------------------------------------------|
G|--------------------------------------------0---0---0/6-------------------|
D|--------------------------------------------0---0---0/7-------------------|
A|-------5--5\4--4--4\2--2--2p-0--0--0------2-2---2--2/7--------------------|
E|--------------------------------------(3)--(3)-(3)--(3/5)-----------------|


                                       lightly
						(such a lone, lonely time)
e|--------------------------------------------------------------------------|
B|--------------------------------------------------------------------------|
G|--------------------------------------------0-----------------------------|
D|--------------------------------------------0-----------------------------|
A|-------5--5\4--4--4\2--2--2p-0--0--0------2--2----------------------------|
E|--------------------------------------(3)---(3)---------------------------|

Go back to the verses and finish with them
And here is the ending

::Ending::

				       Fade slowly
		      (stuck inside of me)
e|------------------------------------------------------------------------|
B|------------------------------------------------------------------------|
G|-----------8-8\6--6--6----6-6\4--4--------------------------------------|
D|-----------9-9\7--7--7----7-7\6--6--------------------------------------|
A|------------------------------------------------------------------------|
E|-----(7)--------------(7)----------(0)~---------------------------------|

And that is it! It will sound great with the AMP settings! Enjoy! 

Glossary: (for those of you who don't know)

| /  slide up
| \  slide down
| p  pull-off
| x  Mute note
| ~  vibrato
Comments