Dave Matthews Band - Some Devil Chords & Tabs

 

Some Devil Chords & Tabs

Dave Matthews Band Chords & Tabs

Version: 2 Type: Tab 0 ratings
1 star 2 stars 3 stars 4 stars 5 stars
comments

Some Devil Tab

   
-------------------------------------------------------------------------------
			    Some Devil - Dave Matthews
-------------------------------------------------------------------------------
Tabbed by: Martin Eriksson
Email:     kakelplattan@hotmail.com

Tuning:    Standard (EADGBe)

Comment:   I play this on my electrical guitar using a Marshall Amp with
           these settings:

           OVERDRIVE
           Gain:        0.5
           Volume:      2

           EQ
           Bass:        8
           Contour:     5
           Treble:      8

           DIGITAL FX
           Preset:      0 (Reverb)
           FX Level:   10
-------------------------------------------------------------------------------

INTRO/VERSE (One last kiss / One only)

     Bmaj                     Amaj                   E
e||------------------------|-----------------------|---------------------|
B||-------6/-7--6/-7--5----|-------5/-7\-5----0----|-------(0)-----------|
G||-------7/-8--7/-8--6----|-------6/-8\-6----4----|-------(1)-----------|
D||------------------------|-----------------------|---------------------|
A||------------------------|-----------------------|----(2)--------------|
E||--7---------------------|-(7)-------------------|--0------------------|

    Gmaj         Amaj
e|-------------------------||
B|-------------------------||
G|--------4-----------6----||
D|--------5-----------7----||
A|-----5-----------7-------||
E|--3----------3/5---------||


CHORUS (You said always and forever...)

The chorus is repeated once. The last bar is silent on the repeat when he
sings "Is such a long and lonely time".
[ Tab from: http://www.guitartabs.cc/tabs/d/dave_matthews_band/some_devil_tab_ver_2.html ]
     Dmaj       Dmaj/C#       Bmaj      A            Gmaj
e||------------------------|----------------------|---------------------|
B||------------------------|----------------------|---------------------|
G||--------7----------7----|--------4---------2---|---------------------|
D||-----7----------7-------|-----4---------2------|--------5------------|
A||--5----------4----------|--2---------0---------|-----5---------------|
E||------------------------|----------------------|--3------------------|

    Gmaj        Amaj
e|-------------------------||
B|-------------------------||
G|-------------------------||
D|--------5-----------7----||
A|-----5-----------7-------||
E|--3-----------5----------||


|  /  slide up
|  \  slide down
| ( ) ghost note

-------------------------------------------------------------------------------

LYRICS

One last kiss / One only
Then I'll let you go

Hard for you / I've fallen
But you can't break my fall

I'm broken / Don't break me
When I hit the ground

Some devil / Some angel
Has got me to the bones


You said always and forever
Now I believe you, baby

You said always and forever
Is such a long and lonely time


Too drunk and / still drinking
It's just the way I feel

It's all right / Is what you told me
'Cause what we had was so beautiful

But I feel heavy / Like floating
At the bottom of the sea


You said always and forever
Now I believe you, baby

You said always and forever
Is such a long and lonely time


Some devil is / stuck inside of me
I cannot set it free

(I wish,) I wish I was dead and / you were grieving
Just so that you could know

Some angel is / stuck inside of me
But I cannot set you free


You said always and forever
Now I believe you, baby

You said always and forever
Such a long, lonely time


Stuck inside of me

===============================================================================
Comments