Dave Matthews Band - Some Devil Chords & Tabs

 

Some Devil Chords & Tabs

Dave Matthews Band Chords & Tabs

Version: 1 Type: Tab 0 ratings
1 star 2 stars 3 stars 4 stars 5 stars
comments

Some Devil Tab

 Dave Matthews -some devil
-------------------------------------------------------------------------------
Tabbed by:brett5
great some devil song
[ Tab from: http://www.guitartabs.cc/tabs/d/dave_matthews_band/some_devil_tab.html ]
Tuning:eadgbe-standard
	
*intro/verse:(some devil....stuck inside..)
e|---------------------------------------------------------------------------|
B|---------------------------------------------------------------------------|
G|----------7--8--6--------5--6--4-------------------------------------------|
D|----------9--9--7--------7--7--6-------------5----------7------------------|
A|-------------------------------------------5----------7--------------------|
E|-------7--------------7------------------3----------5----------------------|

 *chorus: (you said always and forever)
     
e|---------------------------------------------------------------------------|
B|---------------------------------------------------------------------------|
G|---------------------------------------------------------------------------|
D|-------12----12-----9-----7-----5-----7------------------------------------|
A|-------12----12-----9-----7-----5-----7------------------------------------|
E|-------10-----9-----7-----5-----3-----5------------------------------------|

so far thats what i got. hope its good for ya! love this song.
Comments