Dave Matthews Band - So Much To Say Chords & Tabs

 

So Much To Say Chords & Tabs

Dave Matthews Band Chords & Tabs

Version: 1 Type: Tab 0 ratings
1 star 2 stars 3 stars 4 stars 5 stars
comments

So Much To Say Tab

This song is 100% correct, i have seen alot of fucked up versions to this song so i decided to help!

Opening riff

------------5-------------------------------------------------------------------
------------5----------------------------------------------------------
------------5-/-6---------------------------------------------------
-------------------7----------------------------------------------------
--------------------------------------------------------------------------------
----3/5----------------8/--------------------------------------------------

Verse
[ Tab from: http://www.guitartabs.cc/tabs/d/dave_matthews_band/so_much_to_say_tab.html ]
----------5-----------------------------------------------------------
----------5-------------------------------------------------------------
----------5-/-6---------------------------10----------------------------
------------------7--------------3-- -----7------------7------------------
------------------------------2-----------x----------5----------------------
----3/5------------------1---------------/10-----3-----------------------

Chorus
-5-----10-----3-----10--
-5-----10-----3-----10--
-6-----11-----4-----11--
-7-----12-----5-----12--
-7-----12-----5-----12--
-5-----10-----3-----10--

Ends on 

Open......
--------------------
---------------
---------------
-----x-----------
-----x------------
-----5------------
Comments