Dave Matthews Band - Sleep To Dream Her Chords & Tabs

 

Sleep To Dream Her Chords & Tabs

Dave Matthews Band Chords & Tabs

Version: 1 Type: Tab 1 rating
1 star 2 stars 3 stars 4 stars 5 stars
comments

Sleep To Dream Her Tab

"Sleep To Dream Her"
by Dave Matthews Band
off the album Everyday

tabbed by Joshua Kirsch
e-mail me for any questions, comments, or corrections:
joshua@hhhworld.com



 time signature = 6/8
________________________________________________________________________________________________________________
VERSE
                                                                                                            _
                                                                                                             |
     1 + 2 + 3 + 4 + 5 + 6 +  1 + 2 + 3 + 4 + 5 + 6 +  1 + 2 + 3 + 4 + 5 + 6 +  1 + 2 + 3 + 4 + 5 + 6 +                                                               
                 
                                                                                                             |
 e ||--7---7---7---7---7---7-|--7---7---7---6---6---6-|--5---5---5---5---5---5-|--5---5---5---4---4---4-|    |
 B ||--7---7---7---7---7---7-|--7---7---7---7---7---7-|--5---5---5---5---5---5-|--5---5---5---5---5---5-|    |
 G ||------------------------|------------------------|------------------------|------------------------|    |
 D ||------------------------|------------------------|------------------------|------------------------|    |
 A ||6-----------5-----------|4-----------4-----------|4-----------3-----------|2-----------2-----------|    |
 E ||------------------------|------------------------|------------------------|------------------------|    |
                                                                                                             | play
                                                                                                             | 4x
    1 + 2 + 3 + 4 + 5 + 6 +  1 + 2 + 3 + 4 + 5 + 6 +  1 + 2 + 3 + 4 + 5 + 6 +  1 + 2 + 3 + 4 + 5 + 6 +       |                   
                                             
                                                                                                             |
 e |--3---3---3---3---3---3-|--3---3---3---2---2---2-|--0---0---0---0---0---0-|--0---0---0---0---0---0-|     |
 B |--3---3---3---3---3---3-|--3---3---3---3---3---3-|--3---3---3---3---3---3-|--2---2---2---2---2---2-|     |
 G |------------------------|------------------------|------------------------|------------------------|     |
 D |------------------------|------------------------|------------------------|------------------------|     |
 A |2-----------1-----------|0-----------0-----------|0-----------0-----------|0-----------0-----------|     |
 E |------------------------|------------------------|------------------------|------------------------|     |
                                                                                                            _|


________________________________________________________________________________________________________________
CHORUS

    1 + 2 + 3 + 4 + 5 + 6 +  1 + 2 + 3 + 4 + 5 + 6 +  1 + 2 + 3 + 4 + 5 + 6 +  1 + 2 + 3 + 4 + 5 + 6 +

 e |0-----------------------|0-----------------------|0-----------------------|0-----------------------|
 B |1-----------------------|0-----------------------|2-----------------------|2-----------------------|
 G |2-----------------------|0-----------------------|2-----------------------|2-----------------------|
 D |3-----------------------|2-----------------------|2-----------------------|2-----------------------|
 A |3-----------------------|2-----------------------|0-----------------------|0-----------------------|
 E |------------------------|0-----------------------|------------------------|------------------------|


    1 + 2 + 3 + 4 + 5 + 6 +  1 + 2 + 3 + 4 + 5 + 6 +  1 + 2 + 3 + 4 + 5 + 6 +  1 + 2 + 3 + 4 + 5 + 6 +

                                                       sustain________________________________________
 e |0-----------------------|0-----------------------|------------------------|------------------------|
 B |1-----------------------|0-----------------------|2-----------------------|------------------------|
 G |2-----------------------|0-----------------------|3-----------------------|------------------------|
 D |3-----------------------|2-----------------------|0-----------------------|------------------------|
 A |3-----------------------|2-----------------------|0-----------------------|------------------------|
 E |------------------------|0-----------------------|------------------------|------------------------|



________________________________________________________________________________________________________________
VERSE
                                                                                                           _
                                                                                                            |
    1 + 2 + 3 + 4 + 5 + 6 +  1 + 2 + 3 + 4 + 5 + 6 +  1 + 2 + 3 + 4 + 5 + 6 +  1 + 2 + 3 + 4 + 5 + 6 +      |
1                       
2                      
                                                                                                            |
 e |--7---7---7---7---7---7-|--7---7---7---6---6---6-|--5---5---5---5---5---5-|--5---5---5---4---4---4-|    |
 B |--7---7---7---7---7---7-|--7---7---7---7---7---7-|--5---5---5---5---5---5-|--5---5---5---5---5---5-|    |
 G |------------------------|------------------------|------------------------|------------------------|    |
 D |------------------------|------------------------|------------------------|------------------------|    |
 A |6-----------5-----------|4-----------4-----------|4-----------3-----------|2-----------2-----------|    |
 E |------------------------|------------------------|------------------------|------------------------|    |
                                                                                                            | play
                                                                                                            | 2x
    1 + 2 + 3 + 4 + 5 + 6 +  1 + 2 + 3 + 4 + 5 + 6 +  1 + 2 + 3 + 4 + 5 + 6 +  1 + 2 + 3 + 4 + 5 + 6 +      |
                       
                                                                                                            |
 e |--3---3---3---3---3---3-|--3---3---3---2---2---2-|--0---0---0---0---0---0-|--0---0---0---0---0---0-|    |
 B |--3---3---3---3---3---3-|--3---3---3---3---3---3-|--3---3---3---3---3---3-|--2---2---2---2---2---2-|    |
 G |------------------------|------------------------|------------------------|------------------------|    |
 D |------------------------|------------------------|------------------------|------------------------|    |
 A |2-----------1-----------|0-----------0-----------|0-----------0-----------|0-----------0-----------|    |
 E |------------------------|------------------------|------------------------|------------------------|    |
                                                                                                           _|


________________________________________________________________________________________________________________
CHORUS

    1 + 2 + 3 + 4 + 5 + 6 +  1 + 2 + 3 + 4 + 5 + 6 +  1 + 2 + 3 + 4 + 5 + 6 +  1 + 2 + 3 + 4 + 5 + 6 +

 e |0-----------------------|0-----------------------|0-----------------------|0-----------------------|
 B |1-----------------------|0-----------------------|2-----------------------|2-----------------------|
 G |2-----------------------|0-----------------------|2-----------------------|2-----------------------|
 D |3-----------------------|2-----------------------|2-----------------------|2-----------------------|
 A |3-----------------------|2-----------------------|0-----------------------|0-----------------------|
 E |------------------------|0-----------------------|------------------------|------------------------|


    1 + 2 + 3 + 4 + 5 + 6 +  1 + 2 + 3 + 4 + 5 + 6 +  1 + 2 + 3 + 4 + 5 + 6 +  1 + 2 + 3 + 4 + 5 + 6 +

                                                       sustain________________________________________
 e |0-----------------------|0-----------------------|------------------------|------------------------|
 B |1-----------------------|0-----------------------|2-----------------------|------------------------|
 G |2-----------------------|0-----------------------|3-----------------------|------------------------|
 D |3-----------------------|2-----------------------|0-----------------------|------------------------|
 A |3-----------------------|2-----------------------|0-----------------------|------------------------|
 E |------------------------|0-----------------------|------------------------|------------------------|


[ Tab from: http://www.guitartabs.cc/tabs/d/dave_matthews_band/sleep_to_dream_her_tab.html ]
________________________________________________________________________________________________________________
VERSE
                                                                                                           _
                                                                                                            |
    1 + 2 + 3 + 4 + 5 + 6 +  1 + 2 + 3 + 4 + 5 + 6 +  1 + 2 + 3 + 4 + 5 + 6 +  1 + 2 + 3 + 4 + 5 + 6 +      |
1                   
2                   
                                                                                                            |
 e |--7---7---7---7---7---7-|--7---7---7---6---6---6-|--5---5---5---5---5---5-|--5---5---5---4---4---4-|    |
 B |--7---7---7---7---7---7-|--7---7---7---7---7---7-|--5---5---5---5---5---5-|--5---5---5---5---5---5-|    |
 G |------------------------|------------------------|------------------------|------------------------|    |
 D |------------------------|------------------------|------------------------|------------------------|    |
 A |6-----------5-----------|4-----------4-----------|4-----------3-----------|2-----------2-----------|    |
 E |------------------------|------------------------|------------------------|------------------------|    |
                                                                                                            | play
                                                                                                            | 2x
    1 + 2 + 3 + 4 + 5 + 6 +  1 + 2 + 3 + 4 + 5 + 6 +  1 + 2 + 3 + 4 + 5 + 6 +  1 + 2 + 3 + 4 + 5 + 6 +      |
1                         |
2                           |
                                                                                                            |
 e |--3---3---3---3---3---3-|--3---3---3---2---2---2-|--0---0---0---0---0---0-|--0---0---0---0---0---0-|    |
 B |--3---3---3---3---3---3-|--3---3---3---3---3---3-|--3---3---3---3---3---3-|--2---2---2---2---2---2-|    |
 G |------------------------|------------------------|------------------------|------------------------|    |
 D |------------------------|------------------------|------------------------|------------------------|    |
 A |2-----------1-----------|0-----------0-----------|0-----------0-----------|0-----------0-----------|    |
 E |------------------------|------------------------|------------------------|------------------------|    |
                                                                                                           _|


________________________________________________________________________________________________________________
CHORUS
                                                                                                           _
                                                                                                            |
    1 + 2 + 3 + 4 + 5 + 6 +  1 + 2 + 3 + 4 + 5 + 6 +  1 + 2 + 3 + 4 + 5 + 6 +  1 + 2 + 3 + 4 + 5 + 6 +      |
                                                                                                            |
 e |0-----------------------|0-----------------------|0-----------------------|0-----------------------|    |
 B |1-----------------------|0-----------------------|2-----------------------|2-----------------------|    | play
 G |2-----------------------|0-----------------------|2-----------------------|2-----------------------|    | 2x
 D |3-----------------------|2-----------------------|2-----------------------|2-----------------------|    |
 A |3-----------------------|2-----------------------|0-----------------------|0-----------------------|    |
 E |------------------------|0-----------------------|------------------------|------------------------|    |
                                                                                                           _|

    1 + 2 + 3 + 4 + 5 + 6 +  1 + 2 + 3 + 4 + 5 + 6 +

 e |0-----------------------|0-----------------------|
 B |1-----------------------|0-----------------------|
 G |2-----------------------|0-----------------------|
 D |3-----------------------|2-----------------------|
 A |3-----------------------|2-----------------------|
 E |------------------------|0-----------------------|

                                                         _
                                                          |
    1 + 2 + 3 + 4 + 5 + 6 +  1 + 2 + 3 + 4 + 5 + 6 +      |
                                                          |
     sustain________________________________________      |
 e |------------------------|------------------------|    | play
 B |2-----------------------|------------------------|    | 4x
 G |3-----------------------|------------------------|    |
 D |0-----------------------|------------------------|    |
 A |0-----------------------|------------------------|    |
 E |------------------------|------------------------|    |
                                                         _|


     sustain and fade out_______________________________________________________________
 e |-------------------------------------------------------------------------------------||
 B |2------------------------------------------------------------------------------------||
 G |3------------------------------------------------------------------------------------||
 D |0------------------------------------------------------------------------------------||
 A |0------------------------------------------------------------------------------------||
 E |-------------------------------------------------------------------------------------||
                



  ##########################################################################################
  # KEY                                                                                    #
  #                                                                                        #
  #  time signature = 6/8 (6 beats per measure; each eighth note gets one beat)            #
  #                                                                              _         #
  #                                                                               |        #
  #       1   +   2   +   3   +   4   +    1   +     < beat/counting method       |        #
  #  1    lyrics sung first time                                                  |        #
  #  2    lyrics sung seccond time (1st repeat)                                   |        #
  #  3    lyrics sung third time (2nd repeat)                                     |        #
  #                                                                               |        #
  #   e ||--------------------------------|--------------------------------|      |        #
  #   B ||--------------------------------|--------------------------------|      |        #
  #   G ||--------- 1 measure ------------|--------- 1 measure ------------|      |        #
  #   D ||--------------------------------|--------------------------------|      |        #
  #   A ||--------------------------------|--------------------------------|      |        #
  #   E ||--------------------------------|--------------------------------|      |        #
  #                                                                               |        #
  #      ^ marks begining of song                                                 | play   #
  #                                                                               | 3x     #
  #      1   +   2   +   3   +   4   +    1   +   2   +   3   +   4   +           |        #
  #  1   lyrics sung first time                                                   |        #
  #  2   lyrics sung seccond time (1st repeat)                                    |        #
  #  3   lyrics sung third time (2nd repeat)                                      |        #
  #                                                                               |        #
  #   e |--------------------------------|--------------------------------||      |        #
  #   B |--------------------------------|--------------------------------||      |        #
  #   G |--------- 1 measure ------------|--------- 1 measure ------------||      |        #
  #   D |--------------------------------|--------------------------------||      |        #
  #   A |--------------------------------|--------------------------------||      |        #
  #   E |--------------------------------|--------------------------------||      |        #
  #                                                                               |        #
  #   ^ tuning                                           marks end of song ^      |        #
  #                                                                              _|        #
  #                                                                                        #
  ##########################################################################################
Comments