Dave Matthews Band - Seek Up Chords & Tabs

 

Seek Up Chords & Tabs

Dave Matthews Band Chords & Tabs

Version: 2 Type: Tab 0 ratings
1 star 2 stars 3 stars 4 stars 5 stars
comments

Seek Up Tab

   
Name: rich 

Tabs: **New version of**
SEEK UP
BY: Dave Matthews Band
From: live show
Submitted by: rich

INTRO/OUTRO/PRE-CHORUS:
			  “Call love away~“
e------------------<-%-------------------------------|
B------------10-X--<-%-------------------------10-X--|
G------------10-X--<-%-------7/--9-------------10-X--|
D------------0--X--<-%-------0/--0--------------0—X--|
A------8-8---------<-%-------8/--10------8-8---------|
E--*10----*10------<-%-------6/--8----*10---*10------|
 *[let the bass notes(E/10)resonate throughout]
 %[(repeat) only at the first of the intro, and last of outro]
VERSE:
e------------------------------------------------|
B------------10-X--------------------------10-X--|
G------------10-X---------9----------------10-X--|
D------------0--X---------0-----------------0—X--|
A------8-8----------------10---------8-8---------|
E--*10----*10-----------*8--------*10---*10------|

CHORUS: (same old)
   (A)  (Bmn)  (G)  (A)
e---0----2------3----0--|
B---2----3------3----2--|
G---2----4------0----2--|
D---2----4------0----2--|
A---0----2------2----0--|
E--------2------3-------|

(or try this for chorus)
e-------------------|
B-------------------|
G------(4)----------|
D------(2)----------|
A---7/--9\--5/--7---|
E---5/--7\--3/--5---|
 [() same notes; which ever way you like]

CHORUS/VERSE TRANSITION:
e--------------------------------------|
B----------------------------10-X------|
G----------------------------10-X------|
D--4-------------------------0--X------|
A--2—5/--8/--10--------8-8-------------|
E-----3/--6/--8----*10----*10----------|
[ Tab from: http://www.guitartabs.cc/tabs/d/dave_matthews_band/seek_up_tab_ver_2.html ]
**LYRICS**

INTRO:
Call love away
Soon we all fall away
We all see no answer now 
we should find all or way back again 

VERSE:
Came into this town seeking something I had not yet found
In memory of our place
Oh maybe here I will find the dearest things I dream of daily

PRE-CHORUS:
Forget about the reasons for treason, it’s not giving in
Forget about religion, finding holes, and filling them
Forget about the notion that emotions can be swept away
Forget about being guilty, be innocent instead.

CHORUS:
You seek up an emotion, and your cup is overflowing.
You seek up an emotion, and your world is dry.
You seek up any monster, for it to fight your wars for you.
But when he finds his way to you the devils not going, ha ha, ha ha

VERSE:
I left my home, left my town, left my family dry
Wondering what will become of me
I wonder here, and wonder there
And no one, no one seeking I would find their way here

PRE-CHORUS:
Forget about the reasons for the treason’s your seeking
Forget about religion, finding holes, and filling them
Forget about the notion that emotions can be cured
Forget about being guilty, be innocent instead.

CHORUS:
You seek up an emotion, your cup is overflowing.
You seek up an emotion, maybe your world is dry.
You seek up any monster, for it to fight your wars for you.
But when she finds her way to you, the devils not going, ha ha, ha ha

OUTRO:
Come back again
Finding there’s no way of knowing friends
What we have here is, not what we pretend
So we fall back again
Fall back again
Fall back again

Any questions, comments, revisions, bickerings, or requests-
			rich@cc.usu.edu
Comments