Dave Matthews Band - Seek Up Chords & Tabs

 

Seek Up Chords & Tabs

Dave Matthews Band Chords & Tabs

Version: 1 Type: Tab 0 ratings
1 star 2 stars 3 stars 4 stars 5 stars
comments

Seek Up Tab

Good song, great cd.
Tabbed by Morrissey.

SEEK UP

 Intro
E-------------------------------------------
B-------------------------------------------
G-------------------------------------------
D-----10-10---12-10-----10-10----12-10------
A--12-------12------12--------12-------12---
E-------------------------------------------



"Sometimes I fell like..."        "Fall back again..."
E----------------------------     -----------------------------------------------
B----------------------------     -----------------------------------------------
G----------------------------     -----------------------------------------------
D----------------------------     -----------------------------------------------
A-----8-8----8-------8-8-----     ---8-8---8------10-10----10-------8-8----8-----
E--10-----10---10-10-----10--     -6-----6---6--8-------8-----8--10-----10---10--


"Oh, life it seems..."            "..goin to change my ways.."
E-------------------------------    --------------------------------
B-------------------------------    --------------------------------
G-------------------------------    --------------------------------
D-------------------------------    --------------------------------
A----8-8--- 8-------8-8----8----    ---10-10---10-----10-10---10---
E-10-----10---10-10-----10---10-    -8-------8----8-8-------8----8--

[ Tab from: http://www.guitartabs.cc/tabs/d/dave_matthews_band/seek_up_tab.html ]
Sometimes he plays this, for "fall back again..."
it has a fuller sound:
E----------------------------- 
B-----------------------------
G--------7--------------------
D--12----x---12----12---------
A---8----8---10-----8---------
E--10----6----8----10---------


Then for the verse:
E-----------------------  --------------------
B-----------------------  --------------------
G-----------------------  --------------------
D------12-12-----12-----  -----12--12---12----
A-------8--8------8-----  -----10--10---10----
E---10--------10-----10-  --8---------8----8--


Dave's jam at the end of L@RR version (strumming):
E-------------------------------------------
B-------------------------------------------
G------------------------------------------- etc...
D--10--12---10---12----10----12-----10--12--
A--12--12---12---12----12----12-----12--12--
E--10--10----8----8-----8-----8-----10--10--

E-------------------------------------------
B-------------------------------------------
G--12--14---12---14--------12--14----------- etc...
D--10--12---10---12-10-12--10--12-----10-12-
A--12--12---12---12--------12--12--12-------
E---8--10----8---10---------8--10-----------

While Tim jams up here:
E------------------------------
B------------------------------
G---14--12--14-14---12---14---- etc...
D---12-------- 12---10---12----
A------------------------------
E------------------------------

         
Comments