Dave Matthews Band - Say Goodbye Chords & Tabs

 

Say Goodbye Chords & Tabs

Dave Matthews Band Chords & Tabs

Version: 1 Type: Tab 1 rating
1 star 2 stars 3 stars 4 stars 5 stars
comments

Say Goodbye Tab

Dave Matthews Band 
Say Goodbye

Intro


E:----------------------------------------------------
B:-------------------9--------------------------------
G:---6--6/7--x-------9------11-------------6--6/7--6--
D:---x--x----x-------9------x--------------x--x----x--
A:---4--4/5--x---/11-11-----9--------------4--4/5--4--
E:-5-5----------------------10----10\---/5-5----------



Alternate Intro
[ Tab from: http://www.guitartabs.cc/tabs/d/dave_matthews_band/say_goodbye_tab.html ]
E:---------------------------------------------------------
B:-------------------9-------------------------------------
G:---6--6/7--x-------9------11-----9---7--------6--6/7--6--
D:---x--x----x-------9------x------x---x--------x--x----x--
A:---4--4/5--x---/11-11-----9------7---5--------4--4/5--4--
E:-5-5----------------------10-----9---7-----/5-5----------


Verse

E:--------------------------------------
B:-------------9------------------------
G:---6---------9------11-------------6--
D:---x---------9------x--------------x--
A:---4-----/11-11-----9--------------4--
E:-5-5----------------10----10\---/5-5--
  

Chorus

E:-------------------
B:-3----5----2----3--
G:-4----4----2----2--
D:-4----2----2----x--
A:-2----x---------x--
E:------4---------2--


Tomorrow go back to being friends

E:------------
B:---3-----3--
G:---x-----2--
D:---4-----x--
A:---2-----x--
E:-3-3-----2--
           


Say Goodbye

E:------------------
B:---3-----3-----0-- 
G:---x-----2-----2--
D:---4-----x-----2-- 
A:---2-----x--------
E:-3-3-----2--------
                  
Comments