Dave Matthews Band - Save Me Chords & Tabs

 

Save Me Chords & Tabs

Dave Matthews Band Chords & Tabs

Version: 1 Type: Tab 0 ratings
1 star 2 stars 3 stars 4 stars 5 stars
comments

Save Me Tab

Dave Matthews -save me
-------------------------------------------------------------------------------
Tabbed by:brett5
great some devil song

Tuning:eadgbe-standard
	
*intro/verse:(driving through the desert..)
e-----------------------------------------------------------------)
B-----------------------------------------------------------------)
G-----------------------------------------------------------------)
D--------5----3---5-----------------------------------------------)
A--------5--------------------------------------------------------)
E--------3--------------------------------------------------------)

[ Tab from: http://www.guitartabs.cc/tabs/d/dave_matthews_band/save_me_tab.html ]
 *chorus: (save me, save me, mr. walkin man....)
 
e-----------------------------------------------------------------
B-----------1-----------------------------------------------------
G-----------0-----------------------------------------------------
D------3----2---5---3---5-----------------------------------------
A------3----3---5-------------------------------------------------
E------1--------3-------------------------------------------------


 *chorus 2nd part: (stranger, if you please....oh am i too far gone)
 
e------------------------------------------------------------------
B-------------------------1---1------------------------------------
G--------------------1----2---0------------------------------------
D---------------4----2----2---2------------------------------------
A---------------4----2--------3------------------------------------
E---------------2--------------------------------------------------

 *bridge (i don't need you to make the sun shine...)
e------------------------------------------------------------------
B------------------------------------------------------------------
G---7----7---------------------------------------------------------
D---4----4----5----5-----------------------------------------------
A-------------3----5-----------------------------------------------
E---7----5----5----3-----------------------------------------------
Comments