Dave Matthews Band - Satellite Chords & Tabs

 

Satellite Chords & Tabs

Dave Matthews Band Chords & Tabs

Version: 2 Type: Tab 0 ratings
1 star 2 stars 3 stars 4 stars 5 stars
comments

Satellite Tab

   
                           Dave Matthews Band
                               Satellite
                            "the daily tab" 
                          Tabbed by LooX pro

Intro: (Riff A)  
E||------------------|------------------|------------------|------------------|
B||------------------|------------------|------------------|------------------|
G||------------------|------------------|------------------|------------------|
D||-------8-----6----|-5-----3-----6----|-------8-----6----|-5-----3-----6----|
A||----6-----4-----3-|----1-----4-----3-|----6-----4-----3-|----1-----4-----3-|
E||-4----------------|------------------|-4----------------|------------------|

                                                             End Riff A (Play 3 times)
E||------------------|------------------|------------------|------------------|
B||------------------|------------------|------------------|------------------|
G||------------------|------------------|------------------|-----------------*|
D||-------8-----6----|-5-----3-----6----|-------8-----6----|-5---------------*|
A||----6-----4-----3-|----1-----4-----3-|----6-----4-----3-|------------------|
E||-4----------------|------------------|-4----------------|------------------|


Then play Riff A, 7 bars....then the verse starts:

Verse:

satellite in my eyes
like a diamond in the sky
how I wonder
satellite strung from the moon
and the world your balloon
peeping tom for the 

    moth  -  er   sta  -  tion      Chorus:   Win - terīs    cold, 
E||------------------|------------------|------------------|--------------------|
B||------------------|------------------|------------------|--------------------|
G||------------------|------------------|-----/5-----8-----|-8--8-8-8--8--8-8-8-|
D||------------------|-6--6--6--6--6--6-|-6----------6-----|-6--6-6-6--6--6-6-6-|
A||------------------|-6--6--6--6--6--6-|-6----------------|-4--4-4-4--4--4-4-4-|
E||--4----------4-4--|-4--4--4--4--4--4-|-4----------------|--------------------|

        spring e - ras -  es.                   And   the     calm,
E||--------------------|-----------------|------------------|--------------------|
B||--------------------|-----------------|------------------|--------------------|
G||-8--8-8-8--8--8-8-8-|--8-----8-----8--|-----/5-----8-----|-8--8-8-8--8--8-8-8-|
D||-6--6-6-6--6--6-6-6-|--6-----6-----6--|-6----------6-----|-6--6-6-6--6--6-6-6-|
A||-x--x-x-x--x--x-x-x-|--6-----6-----6--|-6----------------|-4--4-4-4--4--4-4-4-|
E||-6--6-6-6--6--6-6-6-|-----------------|-4----------------|--------------------|

         a  - way,  by  the storm  is chas - in.             Ev   - īry  -  thing
E||--------------------|-----------------|------------------|--------------------|
B||--------------------|-----------------|------------------|--------------------|
G||-8--8-8-8--8--8-8-8-|--8-----8-----8--|-----/5-----8-----|-8--8-8-8--8--8-8-8-|
D||-6--6-6-6--6--6-6-6-|--6-----6-----6--|-6----------6-----|-6--6-6-6--6--6-6-6-|
A||-x--x-x-x--x--x-x-x-|--6-----6-----6--|-6----------------|-4--4-4-4--4--4-4-4-|
E||-6--6-6-6--6--6-6-6-|-----------------|-4----------------|--------------------|

    good    needs   re  -  plac - ing          Look   up,     look   down,    
E||--------------------|-----------------|------------------|--------------------|
B||--------------------|-----------------|------------------|--------------------|
G||-8--8-8-8--8--8-8-8-|--8-----8-----8--|-----/5-----8-----|-8--8-8-8--8--8-8-8-|
D||-6--6-6-6--6--6-6-6-|--6-----6-----6--|-6----------6-----|-6--6-6-6--6--6-6-6-|
A||-x--x-x-x--x--x-x-x-|--6-----6-----6--|-6----------------|-4--4-4-4--4--4-4-4-|
E||-6--6-6-6--6--6-6-6-|-----------------|-4----------------|--------------------|

    all a - round    Hey,    sat -  el  - lite      (play 1st 7 meas. of intro)
E||--------------------|-----------------|------------------|------------------|
B||--------------------|-----------------|------------------|------------------|
G||-8--8-8-8--8--8-8-8-|--8-----8-----8--|------------------|------------------|
D||-6--6-6-6--6--6-6-6-|--6-----6-----6--|-------8-----6----|-5-----3-----6----|
A||-x--x-x-x--x--x-x-x-|--6-----6-----6--|----6-----4-----3-|----1-----4-----3-|
E||-6--6-6-6--6--6-6-6-|-----------------|-4----------------|------------------|


verse 2:

satellite headlines read
someone's secrets you've seen
eyes and ears have been
satellite dish in my yard
tell me more tell me more
who's the king of your
[ Tab from: http://www.guitartabs.cc/tabs/d/dave_matthews_band/satellite_tab_ver_2.html ]
    sat - el  - lite  cas - tle?          Chorus:   Win - terīs    cold, 
E||------------------|------------------|------------------|--------------------|
B||------------------|------------------|------------------|--------------------|
G||------------------|------------------|-----/5-----8-----|-8--8-8-8--8--8-8-8-|
D||------------------|-6--6--6--6--6--6-|-6----------6-----|-6--6-6-6--6--6-6-6-|
A||------------------|-6--6--6--6--6--6-|-6----------------|-4--4-4-4--4--4-4-4-|
E||--4----------4-4--|-4--4--4--4--4--4-|-4----------------|--------------------|


        spring e - ras -  es.                   And   the     calm,
E||--------------------|-----------------|------------------|--------------------|
B||--------------------|-----------------|------------------|--------------------|
G||-8--8-8-8--8--8-8-8-|--8-----8-----8--|-----/5-----8-----|-8--8-8-8--8--8-8-8-|
D||-6--6-6-6--6--6-6-6-|--6-----6-----6--|-6----------6-----|-6--6-6-6--6--6-6-6-|
A||-x--x-x-x--x--x-x-x-|--6-----6-----6--|-6----------------|-4--4-4-4--4--4-4-4-|
E||-6--6-6-6--6--6-6-6-|-----------------|-4----------------|--------------------|

         a  - way,  by  the storm  is chas - in.             Ev   - īry  -  thing
E||--------------------|-----------------|------------------|--------------------|
B||--------------------|-----------------|------------------|--------------------|
G||-8--8-8-8--8--8-8-8-|--8-----8-----8--|-----/5-----8-----|-8--8-8-8--8--8-8-8-|
D||-6--6-6-6--6--6-6-6-|--6-----6-----6--|-6----------6-----|-6--6-6-6--6--6-6-6-|
A||-x--x-x-x--x--x-x-x-|--6-----6-----6--|-6----------------|-4--4-4-4--4--4-4-4-|
E||-6--6-6-6--6--6-6-6-|-----------------|-4----------------|--------------------|

    good    needs   re  -  plac - ing          Look   up,     look   down,    
E||--------------------|-----------------|------------------|--------------------|
B||--------------------|-----------------|------------------|--------------------|
G||-8--8-8-8--8--8-8-8-|--8-----8-----8--|-----/5-----8-----|-8--8-8-8--8--8-8-8-|
D||-6--6-6-6--6--6-6-6-|--6-----6-----6--|-6----------6-----|-6--6-6-6--6--6-6-6-|
A||-x--x-x-x--x--x-x-x-|--6-----6-----6--|-6----------------|-4--4-4-4--4--4-4-4-|
E||-6--6-6-6--6--6-6-6-|-----------------|-4----------------|--------------------|

    all a - round    Hey,    sat -  el  - lite     (play 1st 7 meas. of intro)
E||--------------------|-----------------|------------------|------------------|
B||--------------------|-----------------|------------------|------------------|
G||-8--8-8-8--8--8-8-8-|--8-----8-----8--|------------------|------------------|
D||-6--6-6-6--6--6-6-6-|--6-----6-----6--|-------8-----6----|-5-----3-----6----|
A||-x--x-x-x--x--x-x-x-|--6-----6-----6--|----6-----4-----3-|----1-----4-----3-|
E||-6--6-6-6--6--6-6-6-|-----------------|-4----------------|------------------|

                                         (Figure 1:)                        
  (Riff B)                         Rest  high  a - bove  the  cloud,  no   re  -    
E||------------------|------------------|-4--4-4-4--4--4-4-4-|-3--3-3-3--3--3-3-3-|
B||------------------|------------------|-4--4-4-4--4--4-4-4-|-4--4-4-4--4--4-4-4-|
G||------------------|------------------|-5--5-5-5--5--5-5-5-|-5--5-5-5--5--5-5-5-|
D||-5-----------1--3-|-------------8----|-6--6-6-6--6--6-6-6-|-5--5-5-5--5--5-5-5-|
A||----1--3--4-------|-------------x----|-6--6-6-6--6--6-6-6-|-3--3-3-3--3--3-3-3-|
E||------------------|-------------6----|-4--4-4-4--4--4-4-4-|--------------------|


   stric  -  tion.            Tel  -  e  -   vi  -  sion  we
E||-4--4-4-4--4--4-4-4-|-4----------------|------------------|------------------------|
B||-4--4-4-4--4--4-4-4-|-4----------------|------------------|------------------------|
G||-6--6-6-6--6--6-6-6-|-6----------------|-Keep playing Figure 2, 2 and a half times-|
D||-6--6-6-6--6--6-6-6-|-6--------8-------|------------------|------------------------|
A||-4--4-4-4--4--4-4-4-|-4--------x-------|------------------|------------------------|
E||--------------------|----------6-------|------------------|------------------------|

bounce īround the world
And while I spend these hours
five senses reeling
I laugh about this weather manīs
Satellite eyes

Verse 3: (Play with Riff A) 

satellite__ in my eyes
like a diamond in the sky
how I wonder
satellite strung from the moon
and the world your balloon
peeping tom for the mother station

   eyes._______________
E||------------------|------------------|------------------|------------------|
B||------------------|------------------|------------------|------------------|
G||------------------|------------------|------------------|------------------|
D||-------8-----6----|-5-----3-----6----|-------8-----6----|-5-----3-----6----|
A||----6-----4-----3-|----1-----4-----3-|----6-----4-----3-|----1-----4-----3-|
E||-4----------------|------------------|-4----------------|------------------|

                                                           
E||------------------|------------------|------------------|------------------|
B||------------------|------------------|------------------|------------------|
G||------------------|------------------|------------------|------------------|
D||-------8-----6----|-5-----3-----6----|-------8-----6----|-5----------------|
A||----6-----4-----3-|----1-----4-----3-|----6-----4-----3-|------------------|
E||-4----------------|------------------|-4----------------|------------------|

The End.

"the daily tab" 
Webmaster LooX pro
http://www.geocities.com/Pentagon/Bunker/6333
email: dailytab@hotmail.com
Comments