Dave Matthews Band - Rhyme And Reason Chords & Tabs

 

Rhyme And Reason Chords & Tabs

Dave Matthews Band Chords & Tabs

Version: 4 Type: Tab 0 ratings
1 star 2 stars 3 stars 4 stars 5 stars
comments

Rhyme And Reason Tab

Tabbed by Jake Behan

Ok, i tabbed this from the listener supported DVD and it is all
100% correct so i dont wanna see any corrections..ha ok.

Verse
             ** will indicate just slide to, do not play note
e-----------------------------------------------
a-----------------------------------------------
d-----------3-------------------------9---------
g--3/5**-0----------5--------7--------------10--
b-------------5/6**----7/8**--------------------
E-----------------6--------8-------8-----6------
[ Tab from: http://www.guitartabs.cc/tabs/d/dave_matthews_band/rhyme_and_reason_tab_ver_4.html ]
the finger technique is kinda confusing for this song so ill
tell you how dave plays it step by step. 
play the 3slide5 with your ring finger,then the 3d with your index,5slide6 with your
ring, 6E with your middle, 5g with your index, 7slide8 with the ring, 8E with
your middle, 7g with your index, then leave your middle finger where it is and your
ring should already be over the 9d, then index on the last 6E and pinkie on the 10g

Chorus

e------------------
a------------------
d------5---3---5---
g--5---5---3---5---
b--5---3---1---x---
E--3-----------5---
Comments