Dave Matthews Band - Recently Chords & Tabs

 

Recently Chords & Tabs

Dave Matthews Band Chords & Tabs

Version: 3 Type: Tab 0 ratings
1 star 2 stars 3 stars 4 stars 5 stars
comments

Recently Tab

=-=-=-=-=-=-=-=-=-=-=-=-=-=
Dave Matthews Band
Recently
Remember Two Things (1993)
Tabbed by Leandro Koren
leandro_koren@yahoo.com.ar
=-=-=-=-=-=-=-=-=-=-=-=-=-=

Intro: 

      Dm  C   Bm  A   Am  G    3 times this part       After the verse
E|-|-------------------------|----------------------|----------------------|-|
B|-|-------------------------|----------------------|----------------------|-|
G|-|--10--9----7--6----5--4--|------4-------5-0--0--|------4-------5-4--0--|-|
D|-|--0---0----0--0----0--0--|-------5--3-3-----3---|-------5--3-3-----3---|-|
A|-|--X---X----X--X----X--X--|----------------------|----------------------|-|
e|-|--10--8----7--5----5--3--|--3/5-----------------|--3/5-----------------|-|

Verse:
Play this along the song.
[ Tab from: http://www.guitartabs.cc/tabs/d/dave_matthews_band/recently_tab_ver_3.html ]
E|-|-----------------|-----------------|-----------------|-|
B|-|-----------------|-----------------|-----------------|-|
G|-|----4---5-----0--|----4---5-----0--|----4---5-----0--|-|
D|-|-----5-3--5-3----|-----5-3--5-3----|-----5-3--5-3----|-|
A|-|-----------------|-----------------|-----------------|-|
e|-|--3--------------|--3--------------|--3--------------|-|

Verse:

Recently I've been
All of content and dreaming I have been
'Cause I been lately seeing
Quite a bit of this woman live on my street
People stare and we just ignore everything
People stare and we just ignore them
And they go away, go away
She comes to me
I watch her drink
I watch her comb her hair
Both say that we never before have
Felt as recently
People stare and we just ignore
What's the use in hiding out
She says all the time
Let their eyes do the worrying about
She and me go to places quiet
Where we are quite alone
Kiss and we hold together
We will be until we done
People stare and we just ignore
What's the use in hiding out
She says all the time
Let their eyes do the worring about
Both say the we never before
Never before have felt as recently
People stare and we just ignore everything
People stare and we just ignore them
And they go away, go away
Comments