Dave Matthews Band - Raven Chords & Tabs

 

Raven Chords & Tabs

Dave Matthews Band Chords & Tabs

Version: 1 Type: Tab 0 ratings
1 star 2 stars 3 stars 4 stars 5 stars
comments

Raven Tab

Raven

Tabbed by jhp4c2@mizzou.edu


Intro:
E-----------------------------------------------
B-----------------------------------------------
G----------------------------------------------- to verse
D-------12-------12----10-12-10-9-10-9----------
A----10-------10-----------------------12--10---
E--8--------7-----------------------------------


Verse:
E-------------------------------
B-------------------------------
G--------2--------------2-------
D--2--5--2--2-----2--5--2--2----
A--2--5--0--2-----2--5--0--2----
E--0--3-----0-----0--3-----0----

[ Tab from: http://www.guitartabs.cc/tabs/d/dave_matthews_band/raven_tab.html ]
"Caught in time..."
E---------------------------------------------
B---------------------------------------------
G--2-2-2-2--4-4-4-4--5-4--2-2-2-2--4-4--5-4---
D--3-3-3-3--5-5-5-5--5-5--3-3-3-3--5-5--5-5---
A--3-3-3-3--5-5-5-5--3-2--3-3-3-3--5-5--3-2---
E--1-1-1-1--3-3-3-3-------1-1-1-1--3-3--------


"Old man leaves here..."
E----------------------
B--3-------------------
G--2---0---5---4---2--- repeat
D--0---0---5---5---3---
A--0---x---3---2---3---
E------3-----------1---


Ending:
E--------------------------------------------- -------------
B--------------------------------------------- -------------
G----2-0-2-0-2-0-2-0-2------2-0-2-0-2-0-2-0-2- -------6/7---
D----3-3-3-3-3-3-3-3-3------0-0-0-0-0-0-0-0-0- ----5--------
A----x-x-x-x-x-x-x-x-x------x-x-x-x-x-x-x-x-x- --3----------
E--1---------------------3-------------------- -------------
Comments