Dave Matthews Band - Pay For What You Get Chords & Tabs

 

Pay For What You Get Chords & Tabs

Dave Matthews Band Chords & Tabs

Version: 2 Type: Tab 0 ratings
1 star 2 stars 3 stars 4 stars 5 stars
comments

Pay For What You Get Tab

Intro
E:-9\10--8------------------------9\10--8------------------------|
B:-9\10--8------------------------9\10--8------------------------|
G:-9\10--9----7---7--------5---5--9\10--9----5---5---5----7---7--|
D:------------7---7---8----5---5-------------5---5---5----7---7--|
A:------------5---5---8----3---3-------------3---3---3----5---5--|
E:--------------------6------------------------------------------|

[ Tab from: http://www.guitartabs.cc/tabs/d/dave_matthews_band/pay_for_what_you_get_tab_ver_2.html ]
Verse
When leading into verse from intro play first chord accordingly
E:------------------------|
B:-----5------------------|
G:-7---5---5--------------|
D:-7---3---5---7---8---7--|
A:-5-------3---7---8---7--|
E:-------------5---6---5--|


"...Everybody asks me..."
E:---------------------------------|
B:---------------------------------|
G:-5---5---5---5-----------3---3---|
D:-5---5---5---5---3---3---3---3---|
A:-3---3---3---3---3---3---1---1---|
E:-----------------1---1-----------|


Transition
play up to second to last chord then go to this(listen to hear)
E:-----------------|
B:-----------------|
G:-3---------------|
D:-3---7---8---7---|
A:-1---7---8---7---|
E:-----5---6---5---|

JesterToTheClown
Comments