Dave Matthews Band - Pantala Naga Pampa Chords & Tabs

 

Pantala Naga Pampa Chords & Tabs

Dave Matthews Band Chords & Tabs

Version: 1 Type: Tab 0 ratings
1 star 2 stars 3 stars 4 stars 5 stars
comments

Pantala Naga Pampa Tab

#-----------------------------PLEASE NOTE-------------------------------------#
#This OLGA file is the author's own work and represents their interpretation  #
#of the song. You may only use this file for private study, scholarship, or   #
#research. Remember to view this file in Courier, or some other monospaced    #
#font. See http://www.olga.net/faq/ for more information.                     #
#-----------------------------------------------------------------------------#

Date: Tue, 15 Aug 2000 18:38:05 -0400
From: "Scott Taylor" 
Subject: m/matthews_dave_band/pantala_naga_pampa.tab

"Pantala Naga Pampa"

from Dave Matthews Band
Before These Crowded Streets


Dave
----------------------------------
----------------------------------
11--x-x-x-x11-11-x-x11-11-x11-x-x-
----------------------------------
-9--x-x-x-x-9--9-x-x-9--9-x-9-x-x-
----------------------------------
Tim
----------------------------------
------------7---------------------
------------7---------------------
------4-----0---------------4-----
-5----5--------------5------5-----
----------------------------------


Dave
----------------------------------
----------------------------------
11--x-x-x-x11-11-x-11-x-x-11--x-x-
----------------------------------
-9--x-x-x-x-9--9-x--9-x-x--9--x-x-
----------------------------------
Tim
----------------------------------
-7-------------------------7------
-7-------------------------7------
-0------------------4------0------
------------5-------5-------------
----------------------------------


Dave
------------------------------ -----------------------------
------------------------------ -----------------------------
-5~6--------6----6-6--6-6---6- -6~4---4--x-3~4---4---4-4--4~
------------------------------ -----------------------------
-3~4-4-4-4--4----4-4--4-4---4- -4~2---2--x-1~2---2---2-2--2~
-----5-5-5-------------------- ------------------3---3-3----
Tim
------------------------------ -----------------------------
------------------------------ -----------------------------
-5~6---6----6-6--6-6--6------- -6~4---4----3~4-4-4-4--------
------------------------------ ------------------------0----
-3~4---4----4-4--4-4--4------- -4~2---2----1~2-2-2-2---0----
------------------------------ -----------------------------

[ Tab from: http://www.guitartabs.cc/tabs/d/dave_matthews_band/pantala_naga_pampa_tab.html ]
Dave
--------------------------- ----------------------------------
---------------10-10-x10-x- 10-10-xx-xx-10-10-x10--x-10-10-xx-
~11--xx-xxxx-xx11-11-x11-x- 11-11-xx-xx-11-11-x11--x-11-11-xx-
--------------------------- ----------------------------------
~~9--xx-xxxx-xx------------ ----------------------------------
--------------------------- ----------------------------------
Tim-
--------------------------- ----------------------------------
----------7---------------- -7-----------------------7--------
------4---7---------------- -7-----------------------7--------
------5---0-----------4---- -0------------------4----0--------
-5-------------5------5---- -------------5------5-------------
--------------------------- ----------------------------------


Dave
------------------------------- ---------------------------
------------5-5----------5----- ---------------------------
-5~6-6-6--x-6-6---6-6--6-6-6-6- -6~4---4--x-4-4-4-4---4-4--
-----4-4--x---4---4-4--4---4-4- -4~2---2--x-2-2-2-2---2-2--
-3~4-4-4--x-------------------- ------------2-2-2-2---2-2--
------------------------------- -----3------3-3-3-3---3-3--
Tim
------------------------------- ---------------------------
------------------------------- ---------------------------
-5~6---6----6-6--6-6---6-----6- -6~4---4--4-4---4-4---4-4--
------------------------------- ---------------------------
-3~4---4----4-4--4-4---4-----4- -4~2---2--2-2---2-2---2-2--
------------------------------- ------------3---3-3---3-3--


          ....come and relax......

Dave & Tim
----3--3----3--3--3-- ----------0---0----
----3--3----3--3--3-- ----3-----3---3----
----0--0----0--0--0-- ----0-----0---0----
---------2----------- ----2-----2---2----
--------------------- -0-----0---------0-
-0------------------- -------------------

           ....put your troubles......

----2-----2---2---2-- ---3--3----2--2--2-
----3-----3---3---3-- ---0--0----0--0--0-
----2-----2---2---2-- ---0--0----0--0--0-
-0-----0------------- -------------------
--------------------- -------------------
-------2------------- -3-------3---------
       T
                ....no need to bear the weight of your.....

----------3---3--3-3-3- ---------3--3----3--2-
----------3---3--3-3-3- ---------3--3----3--3-
----------0---0--0-0-0- ----2----2--2--0-2--2-
-2--------------------- -2-----2--------------
-2--------------------- -0--------------------
-0--0--0--------------- ----------------------


                    ......let them all fall away...

-----2--------2-2-----2-- ---3--3---3--3-----
-----3-----H--3-3--H--3-- ---3--3---0--0-----
----------0-2-----0-2-2-- ---0--0---0--0-----
-0--------------------0-- -------------------
------------------------- ----------------0--
-2------2---------------- -3------3----------
T

(Dave & Tim)
--------------------------
--------------------------
4~6--6--6-6-6--4-4-4-4----
--------------------------
2~4--4--4-4-4--2-2-2-2----
-----5--5-5-5--3-3-3-3----


Dave
-5----------------------
-7----------------------
-7----------------------
------------------------
------------------------
------------------------
Tim
-2----------------------
-3----------------------
-2----------------------
-0----------------------
------------------------
------------------------

segue to "Rapunzel"


The End


Scott Taylor
School of Music
The Florida State University
http://www.geocities.com/sequenzax
AOL IM: tromba1B
"Eat, drink, and be merry, for tomorrow we shall die." - Epicurus
Comments