Dave Matthews Band - Out Of My Hands Chords & Tabs

 

Out Of My Hands Chords & Tabs

Dave Matthews Band Chords & Tabs

Version: 1 Type: Tab 0 ratings
1 star 2 stars 3 stars 4 stars 5 stars
comments

Out Of My Hands Tab

e--------------|----------------------------|------------|
b--------------|----------------------------|------------|
g-2-2-2-2-(15x)|---2--2---2--2--2-2---2--2--|-repeat-1x--|
d--------------|----------------------------|------------|
a--------------|-3------5-----0-----0-------|------------|
e--------------|----------------------------|------------|
[ Tab from: http://www.guitartabs.cc/tabs/d/dave_matthews_band/out_of_my_hands_tab.html ]
---------------------------------------------------------|
---------------------------------------------------------|
--2-2-2-2-2-2-2-2--2--2--2--2---2--2--2--2---------------|
-2-2-2-2-3-3-3-3-----------------------------------------|
-----------------5--5--5--5---0--0--0--0-----------------|
---------------------------------------------------------|

--------------------------------------------------------------|
-2-----3------------------------------------------------------|
-2--2--2---2--------------------------------------------------|
--------------------------------------------------------------|
-0-0-0-0--0--0------------------------------------------------|
--------------------------------------------------------------|

The song pretty much just does that over and over. Just listen to the song for some of 
parts that i may have missed. Have Fun!
Comments