Dave Matthews Band - One Sweet World Chords & Tabs

 

One Sweet World Chords & Tabs

Dave Matthews Band Chords & Tabs

Version: 1 Type: Tab 0 ratings
1 star 2 stars 3 stars 4 stars 5 stars
comments

One Sweet World Tab

Here is the real way to play One Sweet World, from watching him play it live:


Intro (play it twice; 2nd time, keep strumming last chord)
-------------------------------------------
-------------------------------------------
-8--7--5-----------5/7--7--5---------------
-10-8--6-------3/5------8--6---------------
-0--0--0---5-3----------0--0---------------
-8--6--4--4-------------6--4---------------


Verse
-------------------------------------------
-------------------------------------------
-----7------8/10--10-10--------------------
-------8----8/10--10-10--------------------
---6---------------------------------------
---------6--6/8---8--8---------------------

Here is the way to play it: Put the index finger on the 6, lift it and put your middle finger on the 7,
put your ring finger on the 8, index finger on the 6 (e string), then
put your pinky on the 8 on the string your middle finger is on, and slide

[ Tab from: http://www.guitartabs.cc/tabs/d/dave_matthews_band/one_sweet_world_tab.html ]
Chorus (play twice)
-------------------------------------------
-------------------------------------------
----------5/7--7--5-----7------------------
-----3/5-------8--6-----8------------------
--3------------0--0-----0------------------
---------------6--4-----6------------------

"So let us sleep outside tonight..."


Bridge
-------------------------------------------
------------------------------------8---6--
-8---7--8--10--12--7----8--7--5------------
-10--8--10-12--13--8----10-8--6------------
-0---0--0--0---0---0----0--0--0---6---5----
-8---6--8--12--11--6----8--6--4------------

"Take all that we can get..."

-------------------------------------------
---------------------8---6-----------------
--------5/7--7--5--------------------------
----3/5------8--6--------------------------
--3----------0--0--6---5-------------------
-------------6--4--------------------------

"Nobody left to bury..." (play twice)


Play intro for this part:
"One sweet world, around a star we're spinning..."
Comments