Dave Matthews Band - Oh Chords & Tabs

 

Oh Chords & Tabs

Dave Matthews Band Chords & Tabs

Version: 4 Type: Tab 0 ratings
1 star 2 stars 3 stars 4 stars 5 stars
comments

Oh Tab

----------------------------------------------------------------------------
			     Oh - Dave Matthews Band
----------------------------------------------------------------------------

Tabbed by: MC
Email: Mcdaddy0945@aol.com

Tuning: Standard (it can also be played in droped B...but its not neccesary)

      *Capo 7th Fret all notes relative to Capo 

x - Palm Mute (Slap the strings with your hand)
/ - slide up
h - hammer on
p - pull off
* - let ring

Intro:

e|------------------------x-------------------------------|
B|-------2-------------3--x----------0--------------------|
G|-------2-------------0--x----------0--------0h2p0---0---|
D|----2-------------4-----x-------------------------2---0-|
A|--0----------2/5--------x-------5-----------------------|
E|------------------------x----3---------3----------------| END INTRO




Verse:

e|------------------------x-------------------------------|
B|-------2-------------3--x----------0--------------------|
G|-------2-------------0--x----------0-------0h2p0---0----|
D|----2-------------4-----x------------------------2---0--|
A|--0----------2/5--------x-------5-----------------------|
E|------------------------x----3---------3----------------|
[ Tab from: http://www.guitartabs.cc/tabs/d/dave_matthews_band/oh_tab_ver_4.html ]
   The world..... 
   The world.....
   But you.......
   Makes it ok...
             
e|-----0-0-x----0-0-x----0-0-x-------x----------|
B|-----3-3-x----0-0-x----3-3-x---2-2-x----------|
G|-.---2-2-x----4-4-x----2-2-x---2-2-x---------.|
D|-----0-0-x----4-4-x----0-0-x---2-2-x----------|
A|-.---0-0-x----2-2-x----0-0-x---0-0-x---------.|
E|-----0-0-x----0-0-x----0-0-x---0-0-x----------|
                                               You still talk to me...
       


Chorus:

e|--0--------------0---|
B|--0--------------0---|
G|--0--------------0---|
D|--0--------------2---|   
A|--2--------------2---|
E|--3------------------|      END

  I love you...

        
           2) BACK TO VERSE


Outro:

e|-------------------------------------------------------------------------|
B|--------2-----------3-------------3-------3----------3------3------------|
G|--------2-----------0-------------0-------0----------0------0------------|
D|-----2-----------4-------------4-------4-----4----4------4-------4-------|
A|--0---------2/5--------5--3--3-------3------3----2-----2-------2---------|
E|-------------------------------------------------------------------------|



e|----------------------------0*-----------|
B|--------3------3------------3*-----------|
G|--------0------0------------2*-----------|
D|-----4-------4------4-------0*-----------|
A|--0--------0------0---------0*-----------|
E|----------------------------0*-----------|   END


ENJOY!
Comments