Dave Matthews Band - Oh Chords & Tabs

 

Oh Chords & Tabs

Dave Matthews Band Chords & Tabs

Version: 1 Type: Tab 0 ratings
1 star 2 stars 3 stars 4 stars 5 stars
comments

Oh Tab

   
-----------------------------------------------------------------------
			     Oh  Dave Matthews
-----------------------------------------------------------------------
Tabbed by:allen
Email:rvhdexpres@aol.com
[ Tab from: http://www.guitartabs.cc/tabs/d/dave_matthews_band/oh_tab.html ]
Tuning: standard
	Bridge(I guess. Its the first part on the song)
e|--------------------------------------------------------------------|
B|----9---10--10----7-------------------------------------------------|
G|----9----9--9-----7---7h9p7-----------------------------------------|
D|---9----11--12---7---------9p7--------------------------------------|
A|--7----9--------5---5----------5------------------------------------|
E|--------------------------------------------------------------------|
	Verse                         Chorus
e|---------------------------------|----------------------------------|
B|---10-10--7-7-7---10-10--9-10-9--|----------------------------------|
G|---9--9---7-7-7---9--9---9-9--9--|---6-7---7------------------------|
D|---11-11--7-7-7---11-11--9-9--9--|--7-----7-------------------------|
A|---9--9---5-5-5---9--9---7-7--7--|-5-----5--------------------------|
E|---------------------------------|------7---------------------------|
	outro
e|-----------------------------------------------------------5--------|
B|----9-10---9-10---10--9-10--9-10--10---9-10--9-10--10-----5---------|
G|----9-9----9-9----9---9-9---9-9---9----9-9---9-9---9-----6----------|
D|----9-9----9-9----9---9-9---9-9---9----9-9---9-9---9----7-----------|
A|--10-----10-----10---9-----9-----9---------------------7------------|
E|-------------------------------------12----12----12---5-------------|




| /  slide up
| \  slide down
| h  hammer-on
| p  pull-off
| ~  vibrato
| +  harmonic
| x  Mute note
=======================================================================
Comments